  0
SECTION
  2
HEADER
  9
$ACADVER
  1
AC1009
  9
$INSBASE
 10
0.0
 20
0.0
 30
0.0
  9
$EXTMIN
 10
4.03
 20
2.98
 30
0.0
  9
$EXTMAX
 10
23.03
 20
11.918
 30
0.0
  9
$LIMMIN
 10
0.0
 20
0.0
  9
$LIMMAX
 10
34.0
 20
22.0
  9
$ORTHOMODE
 70
     1
  9
$REGENMODE
 70
     1
  9
$FILLMODE
 70
     1
  9
$QTEXTMODE
 70
     0
  9
$MIRRTEXT
 70
     1
  9
$DRAGMODE
 70
     2
  9
$LTSCALE
 40
1.0
  9
$OSMODE
 70
     0
  9
$ATTMODE
 70
     1
  9
$TEXTSIZE
 40
0.055
  9
$TRACEWID
 40
0.05
  9
$TEXTSTYLE
  7
ROMAND
  9
$CLAYER
  8
0
  9
$CELTYPE
  6
BYLAYER
  9
$CECOLOR
 62
   256
  9
$DIMSCALE
 40
1.0
  9
$DIMASZ
 40
0.18
  9
$DIMEXO
 40
0.063
  9
$DIMDLI
 40
0.38
  9
$DIMRND
 40
0.0
  9
$DIMDLE
 40
0.0
  9
$DIMEXE
 40
0.18
  9
$DIMTP
 40
0.0
  9
$DIMTM
 40
0.0
  9
$DIMTXT
 40
0.18
  9
$DIMCEN
 40
0.09
  9
$DIMTSZ
 40
0.0
  9
$DIMTOL
 70
     0
  9
$DIMLIM
 70
     0
  9
$DIMTIH
 70
     1
  9
$DIMTOH
 70
     1
  9
$DIMSE1
 70
     0
  9
$DIMSE2
 70
     0
  9
$DIMTAD
 70
     0
  9
$DIMZIN
 70
     0
  9
$DIMBLK
  1

  9
$DIMASO
 70
     1
  9
$DIMSHO
 70
     1
  9
$DIMPOST
  1

  9
$DIMAPOST
  1

  9
$DIMALT
 70
     0
  9
$DIMALTD
 70
     2
  9
$DIMALTF
 40
25.4
  9
$DIMLFAC
 40
1.0
  9
$DIMTOFL
 70
     0
  9
$DIMTVP
 40
0.0
  9
$DIMTIX
 70
     0
  9
$DIMSOXD
 70
     0
  9
$DIMSAH
 70
     0
  9
$DIMBLK1
  1

  9
$DIMBLK2
  1

  9
$DIMSTYLE
  2
*UNNAMED
  9
$DIMCLRD
 70
     0
  9
$DIMCLRE
 70
     0
  9
$DIMCLRT
 70
     0
  9
$DIMTFAC
 40
1.0
  9
$DIMGAP
 40
0.09
  9
$LUNITS
 70
     2
  9
$LUPREC
 70
     4
  9
$SKETCHINC
 40
0.1
  9
$FILLETRAD
 40
0.125
  9
$AUNITS
 70
     0
  9
$AUPREC
 70
     0
  9
$MENU
  1
acad
  9
$ELEVATION
 40
0.0
  9
$PELEVATION
 40
0.0
  9
$THICKNESS
 40
0.0
  9
$LIMCHECK
 70
     0
  9
$BLIPMODE
 70
     1
  9
$CHAMFERA
 40
0.0
  9
$CHAMFERB
 40
0.0
  9
$SKPOLY
 70
     0
  9
$TDCREATE
 40
2451107.651497685
  9
$TDUPDATE
 40
2451532.855147222
  9
$TDINDWG
 40
0.6493255787
  9
$TDUSRTIMER
 40
0.6493255787
  9
$USRTIMER
 70
     1
  9
$ANGBASE
 50
0.0
  9
$ANGDIR
 70
     0
  9
$PDMODE
 70
     0
  9
$PDSIZE
 40
0.0
  9
$PLINEWID
 40
0.01
  9
$COORDS
 70
     1
  9
$SPLFRAME
 70
     0
  9
$SPLINETYPE
 70
     6
  9
$SPLINESEGS
 70
     8
  9
$ATTDIA
 70
     0
  9
$ATTREQ
 70
     1
  9
$HANDLING
 70
     0
  9
$HANDSEED
  5
0
  9
$SURFTAB1
 70
     6
  9
$SURFTAB2
 70
     6
  9
$SURFTYPE
 70
     6
  9
$SURFU
 70
     6
  9
$SURFV
 70
     6
  9
$UCSNAME
  2

  9
$UCSORG
 10
0.0
 20
0.0
 30
0.0
  9
$UCSXDIR
 10
1.0
 20
0.0
 30
0.0
  9
$UCSYDIR
 10
0.0
 20
1.0
 30
0.0
  9
$PUCSNAME
  2

  9
$PUCSORG
 10
0.0
 20
0.0
 30
0.0
  9
$PUCSXDIR
 10
1.0
 20
0.0
 30
0.0
  9
$PUCSYDIR
 10
0.0
 20
1.0
 30
0.0
  9
$USERI1
 70
     0
  9
$USERI2
 70
     0
  9
$USERI3
 70
     0
  9
$USERI4
 70
     0
  9
$USERI5
 70
     0
  9
$USERR1
 40
0.0
  9
$USERR2
 40
0.0
  9
$USERR3
 40
0.0
  9
$USERR4
 40
0.0
  9
$USERR5
 40
0.0
  9
$WORLDVIEW
 70
     1
  9
$SHADEDGE
 70
     3
  9
$SHADEDIF
 70
    70
  9
$TILEMODE
 70
     1
  9
$MAXACTVP
 70
    16
  9
$PINSBASE
 10
0.0
 20
0.0
 30
0.0
  9
$PLIMCHECK
 70
     0
  9
$PEXTMIN
 10
1.0000E+20
 20
1.0000E+20
 30
1.0000E+20
  9
$PEXTMAX
 10
-1.0000E+20
 20
-1.0000E+20
 30
-1.0000E+20
  9
$PLIMMIN
 10
0.0
 20
0.0
  9
$PLIMMAX
 10
12.0
 20
9.0
  9
$UNITMODE
 70
     0
  9
$VISRETAIN
 70
     0
  9
$PLINEGEN
 70
     0
  9
$PSLTSCALE
 70
     1
  9
$TREEDEPTH
 70
  3020
  9
$DWGCODEPAGE
  3
iso8859-1
  0
ENDSEC
  0
SECTION
  2
TABLES
  0
TABLE
  2
VPORT
 70
     2
  0
VPORT
  2
*ACTIVE
 70
     0
 10
0.0
 20
0.0
 11
1.0
 21
1.0
 12
19.442577
 22
11.0
 13
0.0
 23
0.0
 14
1.0
 24
1.0
 15
0.0
 25
0.0
 16
0.0
 26
0.0
 36
1.0
 17
0.0
 27
0.0
 37
0.0
 40
22.0
 41
1.767507
 42
50.0
 43
0.0
 44
0.0
 50
0.0
 51
0.0
 71
     0
 72
   100
 73
     1
 74
     0
 75
     0
 76
     0
 77
     0
 78
     0
  0
ENDTAB
  0
TABLE
  2
LTYPE
 70
     1
  0
LTYPE
  2
CONTINUOUS
 70
    64
  3
Solid line
 72
    65
 73
     0
 40
0.0
  0
ENDTAB
  0
TABLE
  2
LAYER
 70
     3
  0
LAYER
  2
0
 70
    64
 62
     7
  6
CONTINUOUS
  0
LAYER
  2
GRID
 70
    64
 62
     7
  6
CONTINUOUS
  0
ENDTAB
  0
TABLE
  2
STYLE
 70
     3
  0
STYLE
  2
STANDARD
 70
     0
 40
0.0
 41
1.0
 50
0.0
 71
     0
 42
0.062
  3
txt
  4

  0
STYLE
  2
ROMANS
 70
    64
 40
0.0
 41
1.0
 50
0.0
 71
     0
 42
0.056
  3
romans
  4

  0
STYLE
  2
ROMAND
 70
    64
 40
0.0
 41
1.0
 50
0.0
 71
     0
 42
0.055
  3
romand
  4

  0
ENDTAB
  0
TABLE
  2
VIEW
 70
     0
  0
ENDTAB
  0
TABLE
  2
UCS
 70
     0
  0
ENDTAB
  0
TABLE
  2
APPID
 70
     1
  0
APPID
  2
ACAD
 70
    64
  0
ENDTAB
  0
TABLE
  2
DIMSTYLE
 70
     0
  0
ENDTAB
  0
ENDSEC
  0
SECTION
  2
BLOCKS
  0
BLOCK
  8
0
  2
LOGO01
 70
    64
 10
0.0
 20
0.0
 30
0.0
  3
LOGO01
  0
POLYLINE
  8
GRID
 66
     1
 10
0.0
 20
0.0
 30
0.0
  0
VERTEX
  8
GRID
 10
0.359
 20
0.625
 30
0.0
 42
0.127
  0
VERTEX
  8
GRID
 10
0.298
 20
0.632
 30
0.0
 42
0.106
  0
VERTEX
  8
GRID
 10
0.229
 20
0.608
 30
0.0
 42
0.086
 70
     2
 50
211.69
  0
VERTEX
  8
GRID
 10
0.173
 20
0.558
 30
0.0
 42
0.076
 50
214.254
  0
VERTEX
  8
GRID
 10
0.13
 20
0.484
 30
0.0
 42
0.076
  0
VERTEX
  8
GRID
 10
0.111
 20
0.4
 30
0.0
 42
0.086
  0
VERTEX
  8
GRID
 10
0.118
 20
0.325
 30
0.0
 42
0.106
 70
     2
 50
285.55
  0
VERTEX
  8
GRID
 10
0.152
 20
0.26
 30
0.0
 42
0.032
 50
288.114
  0
VERTEX
  8
GRID
 10
0.163
 20
0.249
 30
0.0
 42
0.127
  0
SEQEND
  8
GRID
  0
POLYLINE
  8
GRID
 66
     1
 10
0.0
 20
0.0
 30
0.0
  0
VERTEX
  8
GRID
 10
0.331
 20
0.241
 30
0.0
 42
0.086
 70
     2
 50
31.69
  0
VERTEX
  8
GRID
 10
0.388
 20
0.291
 30
0.0
 42
0.076
 50
34.254
  0
VERTEX
  8
GRID
 10
0.431
 20
0.366
 30
0.0
 42
0.076
  0
VERTEX
  8
GRID
 10
0.45
 20
0.449
 30
0.0
 42
0.086
  0
VERTEX
  8
GRID
 10
0.442
 20
0.525
 30
0.0
 42
0.106
 70
     2
 50
105.55
  0
VERTEX
  8
GRID
 10
0.409
 20
0.589
 30
0.0
 42
0.127
 50
108.114
  0
VERTEX
  8
GRID
 10
0.359
 20
0.625
 30
0.0
 42
0.127
  0
SEQEND
  8
GRID
  0
POLYLINE
  8
GRID
 66
     1
 10
0.0
 20
0.0
 30
0.0
 70
     4
 75
     6
  0
VERTEX
  8
GRID
 10
0.163
 20
0.249
 30
0.0
 70
    16
  0
VERTEX
  8
GRID
 10
0.163
 20
0.249
 30
0.0
 70
     8
  0
VERTEX
  8
GRID
 10
0.17
 20
0.243
 30
0.0
 70
     8
  0
VERTEX
  8
GRID
 10
0.175
 20
0.238
 30
0.0
 70
     8
  0
VERTEX
  8
GRID
 10
0.181
 20
0.234
 30
0.0
 70
     8
  0
VERTEX
  8
GRID
 10
0.186
 20
0.231
 30
0.0
 70
     8
  0
VERTEX
  8
GRID
 10
0.19
 20
0.228
 30
0.0
 70
     8
  0
VERTEX
  8
GRID
 10
0.194
 20
0.225
 30
0.0
 70
     8
  0
VERTEX
  8
GRID
 10
0.198
 20
0.223
 30
0.0
 70
     8
  0
VERTEX
  8
GRID
 10
0.202
 20
0.221
 30
0.0
 70
     8
  0
VERTEX
  8
GRID
 10
0.206
 20
0.219
 30
0.0
 70
     8
  0
VERTEX
  8
GRID
 10
0.21
 20
0.216
 30
0.0
 70
     8
  0
VERTEX
  8
GRID
 10
0.214
 20
0.214
 30
0.0
 70
     8
  0
VERTEX
  8
GRID
 10
0.219
 20
0.212
 30
0.0
 70
     8
  0
VERTEX
  8
GRID
 10
0.225
 20
0.209
 30
0.0
 70
     8
  0
VERTEX
  8
GRID
 10
0.231
 20
0.206
 30
0.0
 70
     8
  0
VERTEX
  8
GRID
 10
0.238
 20
0.203
 30
0.0
 70
     8
  0
VERTEX
  8
GRID
 10
0.247
 20
0.199
 30
0.0
 70
     8
  0
VERTEX
  8
GRID
 10
0.182
 20
0.233
 30
0.0
 70
    16
  0
VERTEX
  8
GRID
 10
0.201
 20
0.221
 30
0.0
 70
    16
  0
VERTEX
  8
GRID
 10
0.223
 20
0.209
 30
0.0
 70
    16
  0
VERTEX
  8
GRID
 10
0.247
 20
0.199
 30
0.0
 70
    16
  0
SEQEND
  8
GRID
  0
POLYLINE
  8
GRID
 66
     1
 10
0.0
 20
0.0
 30
0.0
 70
     4
 75
     6
  0
VERTEX
  8
GRID
 10
0.247
 20
0.199
 30
0.0
 70
    16
  0
VERTEX
  8
GRID
 10
0.247
 20
0.199
 30
0.0
 70
     8
  0
VERTEX
  8
GRID
 10
0.259
 20
0.205
 30
0.0
 70
     8
  0
VERTEX
  8
GRID
 10
0.272
 20
0.21
 30
0.0
 70
     8
  0
VERTEX
  8
GRID
 10
0.283
 20
0.216
 30
0.0
 70
     8
  0
VERTEX
  8
GRID
 10
0.294
 20
0.221
 30
0.0
 70
     8
  0
VERTEX
  8
GRID
 10
0.305
 20
0.226
 30
0.0
 70
     8
  0
VERTEX
  8
GRID
 10
0.315
 20
0.231
 30
0.0
 70
     8
  0
VERTEX
  8
GRID
 10
0.323
 20
0.236
 30
0.0
 70
     8
  0
VERTEX
  8
GRID
 10
0.331
 20
0.241
 30
0.0
 70
     8
  0
VERTEX
  8
GRID
 10
0.281
 20
0.214
 30
0.0
 70
    16
  0
VERTEX
  8
GRID
 10
0.311
 20
0.229
 30
0.0
 70
    16
  0
VERTEX
  8
GRID
 10
0.331
 20
0.241
 30
0.0
 70
    16
  0
SEQEND
  8
GRID
  0
POLYLINE
  8
GRID
 66
     1
 10
0.0
 20
0.0
 30
0.0
  0
VERTEX
  8
GRID
 10
0.383
 20
0.222
 30
0.0
 42
0.03
 70
     2
 50
14.511
  0
VERTEX
  8
GRID
 10
0.407
 20
0.238
 30
0.0
 42
0.091
 50
14.511
  0
VERTEX
  8
GRID
 10
0.473
 20
0.308
 30
0.0
 42
0.091
  0
VERTEX
  8
GRID
 10
0.51
 20
0.397
 30
0.0
 42
0.095
  0
VERTEX
  8
GRID
 10
0.512
 20
0.489
 30
0.0
 42
0.101
 70
     2
 50
99.803
  0
VERTEX
  8
GRID
 10
0.479
 20
0.574
 30
0.0
 42
0.106
 50
99.803
  0
VERTEX
  8
GRID
 10
0.417
 20
0.636
 30
0.0
 42
0.106
  0
SEQEND
  8
GRID
  0
POLYLINE
  8
GRID
 66
     1
 10
0.0
 20
0.0
 30
0.0
 70
     4
 75
     6
  0
VERTEX
  8
GRID
 10
0.383
 20
0.222
 30
0.0
 70
    16
  0
VERTEX
  8
GRID
 10
0.383
 20
0.222
 30
0.0
 70
     8
  0
VERTEX
  8
GRID
 10
0.367
 20
0.214
 30
0.0
 70
     8
  0
VERTEX
  8
GRID
 10
0.353
 20
0.206
 30
0.0
 70
     8
  0
VERTEX
  8
GRID
 10
0.341
 20
0.199
 30
0.0
 70
     8
  0
VERTEX
  8
GRID
 10
0.329
 20
0.194
 30
0.0
 70
     8
  0
VERTEX
  8
GRID
 10
0.318
 20
0.188
 30
0.0
 70
     8
  0
VERTEX
  8
GRID
 10
0.309
 20
0.184
 30
0.0
 70
     8
  0
VERTEX
  8
GRID
 10
0.3
 20
0.18
 30
0.0
 70
     8
  0
VERTEX
  8
GRID
 10
0.291
 20
0.176
 30
0.0
 70
     8
  0
VERTEX
  8
GRID
 10
0.283
 20
0.172
 30
0.0
 70
     8
  0
VERTEX
  8
GRID
 10
0.274
 20
0.169
 30
0.0
 70
     8
  0
VERTEX
  8
GRID
 10
0.265
 20
0.166
 30
0.0
 70
     8
  0
VERTEX
  8
GRID
 10
0.256
 20
0.162
 30
0.0
 70
     8
  0
VERTEX
  8
GRID
 10
0.245
 20
0.159
 30
0.0
 70
     8
  0
VERTEX
  8
GRID
 10
0.233
 20
0.155
 30
0.0
 70
     8
  0
VERTEX
  8
GRID
 10
0.22
 20
0.15
 30
0.0
 70
     8
  0
VERTEX
  8
GRID
 10
0.204
 20
0.145
 30
0.0
 70
     8
  0
VERTEX
  8
GRID
 10
0.339
 20
0.198
 30
0.0
 70
    16
  0
VERTEX
  8
GRID
 10
0.288
 20
0.173
 30
0.0
 70
    16
  0
VERTEX
  8
GRID
 10
0.249
 20
0.159
 30
0.0
 70
    16
  0
VERTEX
  8
GRID
 10
0.204
 20
0.145
 30
0.0
 70
    16
  0
SEQEND
  8
GRID
  0
POLYLINE
  8
GRID
 66
     1
 10
0.0
 20
0.0
 30
0.0
  0
VERTEX
  8
GRID
 10
0.417
 20
0.636
 30
0.0
 42
0.007
  0
VERTEX
  8
GRID
 10
0.412
 20
0.639
 30
0.0
 42
0.101
  0
SEQEND
  8
GRID
  0
POLYLINE
  8
GRID
 66
     1
 10
0.0
 20
0.0
 30
0.0
  0
VERTEX
  8
GRID
 10
0.054
 20
0.442
 30
0.0
 42
0.072
  0
VERTEX
  8
GRID
 10
0.056
 20
0.371
 30
0.0
 42
0.101
 70
     2
 50
279.803
  0
VERTEX
  8
GRID
 10
0.089
 20
0.286
 30
0.0
 42
0.106
 50
279.803
  0
VERTEX
  8
GRID
 10
0.151
 20
0.225
 30
0.0
 42
0.106
  0
SEQEND
  8
GRID
  0
POLYLINE
  8
GRID
 66
     1
 10
0.0
 20
0.0
 30
0.0
  0
VERTEX
  8
GRID
 10
0.411
 20
0.639
 30
0.0
 42
0.11
  0
VERTEX
  8
GRID
 10
0.32
 20
0.659
 30
0.0
 42
0.104
  0
VERTEX
  8
GRID
 10
0.217
 20
0.638
 30
0.0
 42
0.092
 70
     2
 50
203.409
  0
VERTEX
  8
GRID
 10
0.128
 20
0.578
 30
0.0
 42
0.012
 50
203.409
  0
VERTEX
  8
GRID
 10
0.117
 20
0.567
 30
0.0
 42
0.085
  0
SEQEND
  8
GRID
  0
POLYLINE
  8
GRID
 66
     1
 10
0.0
 20
0.0
 30
0.0
 70
     4
 75
     6
  0
VERTEX
  8
GRID
 10
0.117
 20
0.567
 30
0.0
 70
    16
  0
VERTEX
  8
GRID
 10
0.117
 20
0.567
 30
0.0
 70
     8
  0
VERTEX
  8
GRID
 10
0.109
 20
0.558
 30
0.0
 70
     8
  0
VERTEX
  8
GRID
 10
0.103
 20
0.551
 30
0.0
 70
     8
  0
VERTEX
  8
GRID
 10
0.097
 20
0.543
 30
0.0
 70
     8
  0
VERTEX
  8
GRID
 10
0.092
 20
0.536
 30
0.0
 70
     8
  0
VERTEX
  8
GRID
 10
0.087
 20
0.53
 30
0.0
 70
     8
  0
VERTEX
  8
GRID
 10
0.083
 20
0.524
 30
0.0
 70
     8
  0
VERTEX
  8
GRID
 10
0.08
 20
0.519
 30
0.0
 70
     8
  0
VERTEX
  8
GRID
 10
0.077
 20
0.513
 30
0.0
 70
     8
  0
VERTEX
  8
GRID
 10
0.074
 20
0.508
 30
0.0
 70
     8
  0
VERTEX
  8
GRID
 10
0.071
 20
0.504
 30
0.0
 70
     8
  0
VERTEX
  8
GRID
 10
0.069
 20
0.499
 30
0.0
 70
     8
  0
VERTEX
  8
GRID
 10
0.067
 20
0.495
 30
0.0
 70
     8
  0
VERTEX
  8
GRID
 10
0.065
 20
0.491
 30
0.0
 70
     8
  0
VERTEX
  8
GRID
 10
0.064
 20
0.486
 30
0.0
 70
     8
  0
VERTEX
  8
GRID
 10
0.062
 20
0.483
 30
0.0
 70
     8
  0
VERTEX
  8
GRID
 10
0.061
 20
0.479
 30
0.0
 70
     8
  0
VERTEX
  8
GRID
 10
0.059
 20
0.475
 30
0.0
 70
     8
  0
VERTEX
  8
GRID
 10
0.058
 20
0.471
 30
0.0
 70
     8
  0
VERTEX
  8
GRID
 10
0.057
 20
0.467
 30
0.0
 70
     8
  0
VERTEX
  8
GRID
 10
0.057
 20
0.463
 30
0.0
 70
     8
  0
VERTEX
  8
GRID
 10
0.056
 20
0.458
 30
0.0
 70
     8
  0
VERTEX
  8
GRID
 10
0.055
 20
0.453
 30
0.0
 70
     8
  0
VERTEX
  8
GRID
 10
0.055
 20
0.448
 30
0.0
 70
     8
  0
VERTEX
  8
GRID
 10
0.054
 20
0.442
 30
0.0
 70
     8
  0
VERTEX
  8
GRID
 10
0.096
 20
0.543
 30
0.0
 70
    16
  0
VERTEX
  8
GRID
 10
0.074
 20
0.511
 30
0.0
 70
    16
  0
VERTEX
  8
GRID
 10
0.059
 20
0.478
 30
0.0
 70
    16
  0
VERTEX
  8
GRID
 10
0.055
 20
0.459
 30
0.0
 70
    16
  0
VERTEX
  8
GRID
 10
0.054
 20
0.442
 30
0.0
 70
    16
  0
SEQEND
  8
GRID
  0
POLYLINE
  8
GRID
 66
     1
 10
0.0
 20
0.0
 30
0.0
  0
VERTEX
  8
GRID
 10
0.933
 20
0.04
 30
0.0
 42
0.005
  0
VERTEX
  8
GRID
 10
0.972
 20
0.049
 30
0.0
 42
0.04
  0
VERTEX
  8
GRID
 10
1.138
 20
0.103
 30
0.0
 42
0.075
 70
     2
 50
22.72
  0
VERTEX
  8
GRID
 10
1.263
 20
0.179
 30
0.0
 42
0.213
 50
15.984
  0
SEQEND
  8
GRID
  0
POLYLINE
  8
GRID
 66
     1
 10
0.0
 20
0.0
 30
0.0
  0
VERTEX
  8
GRID
 10
0.986
 20
0.077
 30
0.0
 42
0.035
  0
VERTEX
  8
GRID
 10
1.13
 20
0.13
 30
0.0
 42
0.053
 70
     2
 50
24.228
  0
VERTEX
  8
GRID
 10
1.218
 20
0.182
 30
0.0
 42
0.075
 50
15.984
  0
SEQEND
  8
GRID
  0
POLYLINE
  8
GRID
 66
     1
 10
0.0
 20
0.0
 30
0.0
 70
     4
 75
     6
  0
VERTEX
  8
GRID
 10
1.218
 20
0.182
 30
0.0
 70
    16
  0
VERTEX
  8
GRID
 10
1.218
 20
0.182
 30
0.0
 70
     8
  0
VERTEX
  8
GRID
 10
1.225
 20
0.186
 30
0.0
 70
     8
  0
VERTEX
  8
GRID
 10
1.231
 20
0.19
 30
0.0
 70
     8
  0
VERTEX
  8
GRID
 10
1.235
 20
0.193
 30
0.0
 70
     8
  0
VERTEX
  8
GRID
 10
1.238
 20
0.195
 30
0.0
 70
     8
  0
VERTEX
  8
GRID
 10
1.241
 20
0.196
 30
0.0
 70
     8
  0
VERTEX
  8
GRID
 10
1.242
 20
0.197
 30
0.0
 70
     8
  0
VERTEX
  8
GRID
 10
1.244
 20
0.198
 30
0.0
 70
     8
  0
VERTEX
  8
GRID
 10
1.245
 20
0.198
 30
0.0
 70
     8
  0
VERTEX
  8
GRID
 10
1.246
 20
0.199
 30
0.0
 70
     8
  0
VERTEX
  8
GRID
 10
1.247
 20
0.199
 30
0.0
 70
     8
  0
VERTEX
  8
GRID
 10
1.248
 20
0.199
 30
0.0
 70
     8
  0
VERTEX
  8
GRID
 10
1.249
 20
0.2
 30
0.0
 70
     8
  0
VERTEX
  8
GRID
 10
1.25
 20
0.2
 30
0.0
 70
     8
  0
VERTEX
  8
GRID
 10
1.25
 20
0.2
 30
0.0
 70
     8
  0
VERTEX
  8
GRID
 10
1.251
 20
0.2
 30
0.0
 70
     8
  0
VERTEX
  8
GRID
 10
1.252
 20
0.2
 30
0.0
 70
     8
  0
VERTEX
  8
GRID
 10
1.253
 20
0.2
 30
0.0
 70
     8
  0
VERTEX
  8
GRID
 10
1.254
 20
0.2
 30
0.0
 70
     8
  0
VERTEX
  8
GRID
 10
1.255
 20
0.2
 30
0.0
 70
     8
  0
VERTEX
  8
GRID
 10
1.256
 20
0.2
 30
0.0
 70
     8
  0
VERTEX
  8
GRID
 10
1.257
 20
0.2
 30
0.0
 70
     8
  0
VERTEX
  8
GRID
 10
1.257
 20
0.2
 30
0.0
 70
     8
  0
VERTEX
  8
GRID
 10
1.258
 20
0.2
 30
0.0
 70
     8
  0
VERTEX
  8
GRID
 10
1.259
 20
0.199
 30
0.0
 70
     8
  0
VERTEX
  8
GRID
 10
1.26
 20
0.199
 30
0.0
 70
     8
  0
VERTEX
  8
GRID
 10
1.261
 20
0.199
 30
0.0
 70
     8
  0
VERTEX
  8
GRID
 10
1.262
 20
0.199
 30
0.0
 70
     8
  0
VERTEX
  8
GRID
 10
1.263
 20
0.198
 30
0.0
 70
     8
  0
VERTEX
  8
GRID
 10
1.264
 20
0.198
 30
0.0
 70
     8
  0
VERTEX
  8
GRID
 10
1.265
 20
0.198
 30
0.0
 70
     8
  0
VERTEX
  8
GRID
 10
1.266
 20
0.197
 30
0.0
 70
     8
  0
VERTEX
  8
GRID
 10
1.267
 20
0.197
 30
0.0
 70
     8
  0
VERTEX
  8
GRID
 10
1.268
 20
0.196
 30
0.0
 70
     8
  0
VERTEX
  8
GRID
 10
1.269
 20
0.196
 30
0.0
 70
     8
  0
VERTEX
  8
GRID
 10
1.269
 20
0.195
 30
0.0
 70
     8
  0
VERTEX
  8
GRID
 10
1.27
 20
0.195
 30
0.0
 70
     8
  0
VERTEX
  8
GRID
 10
1.271
 20
0.194
 30
0.0
 70
     8
  0
VERTEX
  8
GRID
 10
1.271
 20
0.194
 30
0.0
 70
     8
  0
VERTEX
  8
GRID
 10
1.272
 20
0.193
 30
0.0
 70
     8
  0
VERTEX
  8
GRID
 10
1.272
 20
0.193
 30
0.0
 70
     8
  0
VERTEX
  8
GRID
 10
1.272
 20
0.192
 30
0.0
 70
     8
  0
VERTEX
  8
GRID
 10
1.273
 20
0.192
 30
0.0
 70
     8
  0
VERTEX
  8
GRID
 10
1.273
 20
0.191
 30
0.0
 70
     8
  0
VERTEX
  8
GRID
 10
1.273
 20
0.191
 30
0.0
 70
     8
  0
VERTEX
  8
GRID
 10
1.273
 20
0.19
 30
0.0
 70
     8
  0
VERTEX
  8
GRID
 10
1.273
 20
0.19
 30
0.0
 70
     8
  0
VERTEX
  8
GRID
 10
1.273
 20
0.189
 30
0.0
 70
     8
  0
VERTEX
  8
GRID
 10
1.272
 20
0.189
 30
0.0
 70
     8
  0
VERTEX
  8
GRID
 10
1.272
 20
0.188
 30
0.0
 70
     8
  0
VERTEX
  8
GRID
 10
1.272
 20
0.187
 30
0.0
 70
     8
  0
VERTEX
  8
GRID
 10
1.271
 20
0.186
 30
0.0
 70
     8
  0
VERTEX
  8
GRID
 10
1.27
 20
0.186
 30
0.0
 70
     8
  0
VERTEX
  8
GRID
 10
1.269
 20
0.184
 30
0.0
 70
     8
  0
VERTEX
  8
GRID
 10
1.267
 20
0.183
 30
0.0
 70
     8
  0
VERTEX
  8
GRID
 10
1.265
 20
0.181
 30
0.0
 70
     8
  0
VERTEX
  8
GRID
 10
1.263
 20
0.179
 30
0.0
 70
     8
  0
VERTEX
  8
GRID
 10
1.239
 20
0.195
 30
0.0
 70
    16
  0
VERTEX
  8
GRID
 10
1.245
 20
0.199
 30
0.0
 70
    16
  0
VERTEX
  8
GRID
 10
1.252
 20
0.201
 30
0.0
 70
    16
  0
VERTEX
  8
GRID
 10
1.259
 20
0.2
 30
0.0
 70
    16
  0
VERTEX
  8
GRID
 10
1.268
 20
0.197
 30
0.0
 70
    16
  0
VERTEX
  8
GRID
 10
1.273
 20
0.193
 30
0.0
 70
    16
  0
VERTEX
  8
GRID
 10
1.273
 20
0.189
 30
0.0
 70
    16
  0
VERTEX
  8
GRID
 10
1.27
 20
0.185
 30
0.0
 70
    16
  0
VERTEX
  8
GRID
 10
1.263
 20
0.179
 30
0.0
 70
    16
  0
SEQEND
  8
GRID
  0
POLYLINE
  8
GRID
 66
     1
 10
0.0
 20
0.0
 30
0.0
 70
     4
 75
     6
  0
VERTEX
  8
GRID
 10
0.933
 20
0.04
 30
0.0
 70
    16
  0
VERTEX
  8
GRID
 10
0.933
 20
0.04
 30
0.0
 70
     8
  0
VERTEX
  8
GRID
 10
0.922
 20
0.038
 30
0.0
 70
     8
  0
VERTEX
  8
GRID
 10
0.913
 20
0.035
 30
0.0
 70
     8
  0
VERTEX
  8
GRID
 10
0.903
 20
0.034
 30
0.0
 70
     8
  0
VERTEX
  8
GRID
 10
0.895
 20
0.032
 30
0.0
 70
     8
  0
VERTEX
  8
GRID
 10
0.887
 20
0.03
 30
0.0
 70
     8
  0
VERTEX
  8
GRID
 10
0.88
 20
0.029
 30
0.0
 70
     8
  0
VERTEX
  8
GRID
 10
0.873
 20
0.028
 30
0.0
 70
     8
  0
VERTEX
  8
GRID
 10
0.867
 20
0.027
 30
0.0
 70
     8
  0
VERTEX
  8
GRID
 10
0.861
 20
0.026
 30
0.0
 70
     8
  0
VERTEX
  8
GRID
 10
0.855
 20
0.025
 30
0.0
 70
     8
  0
VERTEX
  8
GRID
 10
0.849
 20
0.024
 30
0.0
 70
     8
  0
VERTEX
  8
GRID
 10
0.843
 20
0.024
 30
0.0
 70
     8
  0
VERTEX
  8
GRID
 10
0.837
 20
0.023
 30
0.0
 70
     8
  0
VERTEX
  8
GRID
 10
0.831
 20
0.022
 30
0.0
 70
     8
  0
VERTEX
  8
GRID
 10
0.826
 20
0.022
 30
0.0
 70
     8
  0
VERTEX
  8
GRID
 10
0.82
 20
0.021
 30
0.0
 70
     8
  0
VERTEX
  8
GRID
 10
0.815
 20
0.021
 30
0.0
 70
     8
  0
VERTEX
  8
GRID
 10
0.809
 20
0.02
 30
0.0
 70
     8
  0
VERTEX
  8
GRID
 10
0.804
 20
0.02
 30
0.0
 70
     8
  0
VERTEX
  8
GRID
 10
0.798
 20
0.02
 30
0.0
 70
     8
  0
VERTEX
  8
GRID
 10
0.793
 20
0.019
 30
0.0
 70
     8
  0
VERTEX
  8
GRID
 10
0.788
 20
0.019
 30
0.0
 70
     8
  0
VERTEX
  8
GRID
 10
0.782
 20
0.018
 30
0.0
 70
     8
  0
VERTEX
  8
GRID
 10
0.777
 20
0.018
 30
0.0
 70
     8
  0
VERTEX
  8
GRID
 10
0.771
 20
0.018
 30
0.0
 70
     8
  0
VERTEX
  8
GRID
 10
0.766
 20
0.017
 30
0.0
 70
     8
  0
VERTEX
  8
GRID
 10
0.76
 20
0.017
 30
0.0
 70
     8
  0
VERTEX
  8
GRID
 10
0.754
 20
0.017
 30
0.0
 70
     8
  0
VERTEX
  8
GRID
 10
0.747
 20
0.016
 30
0.0
 70
     8
  0
VERTEX
  8
GRID
 10
0.74
 20
0.016
 30
0.0
 70
     8
  0
VERTEX
  8
GRID
 10
0.732
 20
0.016
 30
0.0
 70
     8
  0
VERTEX
  8
GRID
 10
0.723
 20
0.015
 30
0.0
 70
     8
  0
VERTEX
  8
GRID
 10
0.903
 20
0.033
 30
0.0
 70
    16
  0
VERTEX
  8
GRID
 10
0.865
 20
0.026
 30
0.0
 70
    16
  0
VERTEX
  8
GRID
 10
0.82
 20
0.021
 30
0.0
 70
    16
  0
VERTEX
  8
GRID
 10
0.777
 20
0.018
 30
0.0
 70
    16
  0
VERTEX
  8
GRID
 10
0.748
 20
0.016
 30
0.0
 70
    16
  0
VERTEX
  8
GRID
 10
0.723
 20
0.015
 30
0.0
 70
    16
  0
SEQEND
  8
GRID
  0
POLYLINE
  8
GRID
 66
     1
 10
0.0
 20
0.0
 30
0.0
 70
     4
 75
     6
  0
VERTEX
  8
GRID
 10
0.828
 20
0.05
 30
0.0
 70
    16
  0
VERTEX
  8
GRID
 10
0.828
 20
0.05
 30
0.0
 70
     8
  0
VERTEX
  8
GRID
 10
0.841
 20
0.051
 30
0.0
 70
     8
  0
VERTEX
  8
GRID
 10
0.852
 20
0.051
 30
0.0
 70
     8
  0
VERTEX
  8
GRID
 10
0.862
 20
0.052
 30
0.0
 70
     8
  0
VERTEX
  8
GRID
 10
0.871
 20
0.053
 30
0.0
 70
     8
  0
VERTEX
  8
GRID
 10
0.879
 20
0.053
 30
0.0
 70
     8
  0
VERTEX
  8
GRID
 10
0.886
 20
0.054
 30
0.0
 70
     8
  0
VERTEX
  8
GRID
 10
0.892
 20
0.055
 30
0.0
 70
     8
  0
VERTEX
  8
GRID
 10
0.898
 20
0.056
 30
0.0
 70
     8
  0
VERTEX
  8
GRID
 10
0.903
 20
0.056
 30
0.0
 70
     8
  0
VERTEX
  8
GRID
 10
0.908
 20
0.057
 30
0.0
 70
     8
  0
VERTEX
  8
GRID
 10
0.913
 20
0.058
 30
0.0
 70
     8
  0
VERTEX
  8
GRID
 10
0.918
 20
0.059
 30
0.0
 70
     8
  0
VERTEX
  8
GRID
 10
0.923
 20
0.06
 30
0.0
 70
     8
  0
VERTEX
  8
GRID
 10
0.928
 20
0.061
 30
0.0
 70
     8
  0
VERTEX
  8
GRID
 10
0.932
 20
0.062
 30
0.0
 70
     8
  0
VERTEX
  8
GRID
 10
0.937
 20
0.063
 30
0.0
 70
     8
  0
VERTEX
  8
GRID
 10
0.942
 20
0.064
 30
0.0
 70
     8
  0
VERTEX
  8
GRID
 10
0.948
 20
0.066
 30
0.0
 70
     8
  0
VERTEX
  8
GRID
 10
0.953
 20
0.067
 30
0.0
 70
     8
  0
VERTEX
  8
GRID
 10
0.959
 20
0.069
 30
0.0
 70
     8
  0
VERTEX
  8
GRID
 10
0.965
 20
0.071
 30
0.0
 70
     8
  0
VERTEX
  8
GRID
 10
0.972
 20
0.073
 30
0.0
 70
     8
  0
VERTEX
  8
GRID
 10
0.978
 20
0.075
 30
0.0
 70
     8
  0
VERTEX
  8
GRID
 10
0.986
 20
0.077
 30
0.0
 70
     8
  0
VERTEX
  8
GRID
 10
0.864
 20
0.052
 30
0.0
 70
    16
  0
VERTEX
  8
GRID
 10
0.901
 20
0.055
 30
0.0
 70
    16
  0
VERTEX
  8
GRID
 10
0.935
 20
0.062
 30
0.0
 70
    16
  0
VERTEX
  8
GRID
 10
0.966
 20
0.07
 30
0.0
 70
    16
  0
VERTEX
  8
GRID
 10
0.986
 20
0.077
 30
0.0
 70
    16
  0
SEQEND
  8
GRID
  0
POLYLINE
  8
GRID
 66
     1
 10
0.0
 20
0.0
 30
0.0
  0
VERTEX
  8
GRID
 10
0.513
 20
0.035
 30
0.0
 42
0.027
 70
     2
 50
346.662
  0
VERTEX
  8
GRID
 10
0.63
 20
0.02
 30
0.0
 42
0.012
 50
344.016
  0
VERTEX
  8
GRID
 10
0.723
 20
0.015
 30
0.0
 42
0.018
  0
SEQEND
  8
GRID
  0
POLYLINE
  8
GRID
 66
     1
 10
0.0
 20
0.0
 30
0.0
  0
VERTEX
  8
GRID
 10
0.408
 20
0.121
 30
0.0
 42
0.018
  0
VERTEX
  8
GRID
 10
0.374
 20
0.128
 30
0.0
 42
0.039
 70
     2
 50
169.743
  0
VERTEX
  8
GRID
 10
0.204
 20
0.145
 30
0.0
 42
0.03
 50
164.016
  0
SEQEND
  8
GRID
  0
POLYLINE
  8
GRID
 66
     1
 10
0.0
 20
0.0
 30
0.0
 70
     4
 75
     6
  0
VERTEX
  8
GRID
 10
0.408
 20
0.121
 30
0.0
 70
    16
  0
VERTEX
  8
GRID
 10
0.408
 20
0.121
 30
0.0
 70
     8
  0
VERTEX
  8
GRID
 10
0.425
 20
0.117
 30
0.0
 70
     8
  0
VERTEX
  8
GRID
 10
0.442
 20
0.112
 30
0.0
 70
     8
  0
VERTEX
  8
GRID
 10
0.461
 20
0.108
 30
0.0
 70
     8
  0
VERTEX
  8
GRID
 10
0.48
 20
0.103
 30
0.0
 70
     8
  0
VERTEX
  8
GRID
 10
0.5
 20
0.098
 30
0.0
 70
     8
  0
VERTEX
  8
GRID
 10
0.521
 20
0.092
 30
0.0
 70
     8
  0
VERTEX
  8
GRID
 10
0.543
 20
0.086
 30
0.0
 70
     8
  0
VERTEX
  8
GRID
 10
0.566
 20
0.079
 30
0.0
 70
     8
  0
VERTEX
  8
GRID
 10
0.451
 20
0.111
 30
0.0
 70
    16
  0
VERTEX
  8
GRID
 10
0.504
 20
0.097
 30
0.0
 70
    16
  0
VERTEX
  8
GRID
 10
0.566
 20
0.079
 30
0.0
 70
    16
  0
SEQEND
  8
GRID
  0
POLYLINE
  8
GRID
 66
     1
 10
0.0
 20
0.0
 30
0.0
  0
VERTEX
  8
GRID
 10
0.566
 20
0.079
 30
0.0
 42
0.021
  0
VERTEX
  8
GRID
 10
0.605
 20
0.07
 30
0.0
 42
0.04
 70
     2
 50
349.189
  0
VERTEX
  8
GRID
 10
0.778
 20
0.051
 30
0.0
 42
0.006
 50
344.016
  0
VERTEX
  8
GRID
 10
0.828
 20
0.05
 30
0.0
 42
0.025
  0
SEQEND
  8
GRID
  0
POLYLINE
  8
GRID
 66
     1
 10
0.0
 20
0.0
 30
0.0
  0
VERTEX
  8
GRID
 10
0.39
 20
0.074
 30
0.0
 42
0.07
  0
VERTEX
  8
GRID
 10
0.261
 20
0.114
 30
0.0
 42
0.015
 70
     2
 50
170.751
  0
VERTEX
  8
GRID
 10
0.198
 20
0.123
 30
0.0
 42
0.03
 50
164.016
  0
SEQEND
  8
GRID
  0
POLYLINE
  8
GRID
 66
     1
 10
0.0
 20
0.0
 30
0.0
 70
     4
 75
     6
  0
VERTEX
  8
GRID
 10
0.39
 20
0.074
 30
0.0
 70
    16
  0
VERTEX
  8
GRID
 10
0.39
 20
0.074
 30
0.0
 70
     8
  0
VERTEX
  8
GRID
 10
0.401
 20
0.07
 30
0.0
 70
     8
  0
VERTEX
  8
GRID
 10
0.411
 20
0.066
 30
0.0
 70
     8
  0
VERTEX
  8
GRID
 10
0.419
 20
0.063
 30
0.0
 70
     8
  0
VERTEX
  8
GRID
 10
0.427
 20
0.06
 30
0.0
 70
     8
  0
VERTEX
  8
GRID
 10
0.434
 20
0.058
 30
0.0
 70
     8
  0
VERTEX
  8
GRID
 10
0.441
 20
0.055
 30
0.0
 70
     8
  0
VERTEX
  8
GRID
 10
0.447
 20
0.053
 30
0.0
 70
     8
  0
VERTEX
  8
GRID
 10
0.453
 20
0.051
 30
0.0
 70
     8
  0
VERTEX
  8
GRID
 10
0.459
 20
0.049
 30
0.0
 70
     8
  0
VERTEX
  8
GRID
 10
0.465
 20
0.048
 30
0.0
 70
     8
  0
VERTEX
  8
GRID
 10
0.471
 20
0.046
 30
0.0
 70
     8
  0
VERTEX
  8
GRID
 10
0.478
 20
0.044
 30
0.0
 70
     8
  0
VERTEX
  8
GRID
 10
0.485
 20
0.042
 30
0.0
 70
     8
  0
VERTEX
  8
GRID
 10
0.493
 20
0.04
 30
0.0
 70
     8
  0
VERTEX
  8
GRID
 10
0.503
 20
0.037
 30
0.0
 70
     8
  0
VERTEX
  8
GRID
 10
0.513
 20
0.035
 30
0.0
 70
     8
  0
VERTEX
  8
GRID
 10
0.421
 20
0.062
 30
0.0
 70
    16
  0
VERTEX
  8
GRID
 10
0.454
 20
0.051
 30
0.0
 70
    16
  0
VERTEX
  8
GRID
 10
0.483
 20
0.042
 30
0.0
 70
    16
  0
VERTEX
  8
GRID
 10
0.513
 20
0.035
 30
0.0
 70
    16
  0
SEQEND
  8
GRID
  0
POLYLINE
  8
GRID
 66
     1
 10
0.0
 20
0.0
 30
0.0
  0
VERTEX
  8
GRID
 10
0.198
 20
0.123
 30
0.0
 42
0.029
  0
VERTEX
  8
GRID
 10
0.167
 20
0.123
 30
0.0
 42
0.066
  0
VERTEX
  8
GRID
 10
0.123
 20
0.115
 30
0.0
 42
0.054
 70
     2
 50
197.781
  0
VERTEX
  8
GRID
 10
0.103
 20
0.106
 30
0.0
 42
0.173
 50
206.819
  0
SEQEND
  8
GRID
  0
POLYLINE
  8
GRID
 66
     1
 10
0.0
 20
0.0
 30
0.0
 75
     6
  0
VERTEX
  8
GRID
 10
0.217
 20
0.188
 30
0.0
  0
VERTEX
  8
GRID
 10
0.21
 20
0.185
 30
0.0
  0
VERTEX
  8
GRID
 10
0.179
 20
0.174
 30
0.0
  0
VERTEX
  8
GRID
 10
0.155
 20
0.164
 30
0.0
  0
VERTEX
  8
GRID
 10
0.135
 20
0.156
 30
0.0
  0
VERTEX
  8
GRID
 10
0.119
 20
0.15
 30
0.0
  0
VERTEX
  8
GRID
 10
0.106
 20
0.145
 30
0.0
  0
VERTEX
  8
GRID
 10
0.095
 20
0.141
 30
0.0
  0
VERTEX
  8
GRID
 10
0.086
 20
0.137
 30
0.0
  0
VERTEX
  8
GRID
 10
0.078
 20
0.133
 30
0.0
  0
VERTEX
  8
GRID
 10
0.07
 20
0.13
 30
0.0
  0
VERTEX
  8
GRID
 10
0.063
 20
0.127
 30
0.0
  0
VERTEX
  8
GRID
 10
0.057
 20
0.125
 30
0.0
  0
VERTEX
  8
GRID
 10
0.051
 20
0.122
 30
0.0
  0
VERTEX
  8
GRID
 10
0.046
 20
0.12
 30
0.0
  0
VERTEX
  8
GRID
 10
0.041
 20
0.118
 30
0.0
  0
VERTEX
  8
GRID
 10
0.037
 20
0.116
 30
0.0
  0
VERTEX
  8
GRID
 10
0.034
 20
0.115
 30
0.0
  0
VERTEX
  8
GRID
 10
0.031
 20
0.114
 30
0.0
  0
VERTEX
  8
GRID
 10
0.028
 20
0.112
 30
0.0
  0
VERTEX
  8
GRID
 10
0.026
 20
0.111
 30
0.0
  0
VERTEX
  8
GRID
 10
0.025
 20
0.11
 30
0.0
  0
VERTEX
  8
GRID
 10
0.023
 20
0.109
 30
0.0
  0
VERTEX
  8
GRID
 10
0.022
 20
0.108
 30
0.0
  0
VERTEX
  8
GRID
 10
0.021
 20
0.107
 30
0.0
  0
VERTEX
  8
GRID
 10
0.02
 20
0.106
 30
0.0
  0
VERTEX
  8
GRID
 10
0.019
 20
0.104
 30
0.0
  0
VERTEX
  8
GRID
 10
0.018
 20
0.103
 30
0.0
  0
VERTEX
  8
GRID
 10
0.018
 20
0.101
 30
0.0
  0
VERTEX
  8
GRID
 10
0.017
 20
0.1
 30
0.0
  0
VERTEX
  8
GRID
 10
0.017
 20
0.098
 30
0.0
  0
VERTEX
  8
GRID
 10
0.017
 20
0.096
 30
0.0
  0
VERTEX
  8
GRID
 10
0.017
 20
0.095
 30
0.0
  0
VERTEX
  8
GRID
 10
0.017
 20
0.093
 30
0.0
  0
VERTEX
  8
GRID
 10
0.018
 20
0.091
 30
0.0
  0
VERTEX
  8
GRID
 10
0.018
 20
0.09
 30
0.0
  0
VERTEX
  8
GRID
 10
0.019
 20
0.088
 30
0.0
  0
VERTEX
  8
GRID
 10
0.02
 20
0.086
 30
0.0
  0
VERTEX
  8
GRID
 10
0.021
 20
0.085
 30
0.0
  0
VERTEX
  8
GRID
 10
0.022
 20
0.083
 30
0.0
  0
VERTEX
  8
GRID
 10
0.023
 20
0.082
 30
0.0
  0
VERTEX
  8
GRID
 10
0.024
 20
0.081
 30
0.0
  0
VERTEX
  8
GRID
 10
0.026
 20
0.08
 30
0.0
  0
VERTEX
  8
GRID
 10
0.027
 20
0.079
 30
0.0
  0
VERTEX
  8
GRID
 10
0.029
 20
0.078
 30
0.0
  0
VERTEX
  8
GRID
 10
0.03
 20
0.077
 30
0.0
  0
VERTEX
  8
GRID
 10
0.032
 20
0.077
 30
0.0
  0
VERTEX
  8
GRID
 10
0.033
 20
0.076
 30
0.0
  0
VERTEX
  8
GRID
 10
0.035
 20
0.076
 30
0.0
  0
VERTEX
  8
GRID
 10
0.036
 20
0.076
 30
0.0
  0
VERTEX
  8
GRID
 10
0.038
 20
0.075
 30
0.0
  0
VERTEX
  8
GRID
 10
0.039
 20
0.075
 30
0.0
  0
VERTEX
  8
GRID
 10
0.04
 20
0.075
 30
0.0
  0
VERTEX
  8
GRID
 10
0.042
 20
0.075
 30
0.0
  0
VERTEX
  8
GRID
 10
0.043
 20
0.075
 30
0.0
  0
VERTEX
  8
GRID
 10
0.045
 20
0.076
 30
0.0
  0
VERTEX
  8
GRID
 10
0.047
 20
0.076
 30
0.0
  0
VERTEX
  8
GRID
 10
0.048
 20
0.076
 30
0.0
  0
VERTEX
  8
GRID
 10
0.05
 20
0.077
 30
0.0
  0
VERTEX
  8
GRID
 10
0.052
 20
0.078
 30
0.0
  0
VERTEX
  8
GRID
 10
0.053
 20
0.078
 30
0.0
  0
VERTEX
  8
GRID
 10
0.055
 20
0.079
 30
0.0
  0
VERTEX
  8
GRID
 10
0.057
 20
0.08
 30
0.0
  0
VERTEX
  8
GRID
 10
0.06
 20
0.081
 30
0.0
  0
VERTEX
  8
GRID
 10
0.062
 20
0.082
 30
0.0
  0
VERTEX
  8
GRID
 10
0.064
 20
0.084
 30
0.0
  0
VERTEX
  8
GRID
 10
0.067
 20
0.085
 30
0.0
  0
VERTEX
  8
GRID
 10
0.071
 20
0.087
 30
0.0
  0
VERTEX
  8
GRID
 10
0.075
 20
0.09
 30
0.0
  0
VERTEX
  8
GRID
 10
0.08
 20
0.093
 30
0.0
  0
VERTEX
  8
GRID
 10
0.087
 20
0.096
 30
0.0
  0
VERTEX
  8
GRID
 10
0.094
 20
0.101
 30
0.0
  0
VERTEX
  8
GRID
 10
0.103
 20
0.106
 30
0.0
  0
SEQEND
  8
GRID
  0
POLYLINE
  8
GRID
 66
     1
 10
0.0
 20
0.0
 30
0.0
 75
     6
  0
VERTEX
  8
GRID
 10
0.151
 20
0.225
 30
0.0
  0
VERTEX
  8
GRID
 10
0.159
 20
0.219
 30
0.0
  0
VERTEX
  8
GRID
 10
0.168
 20
0.214
 30
0.0
  0
VERTEX
  8
GRID
 10
0.176
 20
0.21
 30
0.0
  0
VERTEX
  8
GRID
 10
0.185
 20
0.205
 30
0.0
  0
VERTEX
  8
GRID
 10
0.193
 20
0.201
 30
0.0
  0
VERTEX
  8
GRID
 10
0.201
 20
0.196
 30
0.0
  0
VERTEX
  8
GRID
 10
0.209
 20
0.192
 30
0.0
  0
VERTEX
  8
GRID
 10
0.217
 20
0.188
 30
0.0
  0
SEQEND
  8
GRID
  0
POLYLINE
  8
GRID
 66
     1
 10
0.0
 20
0.0
 30
0.0
  0
VERTEX
  8
GRID
 10
0.566
 20
0.298
 30
0.0
 42
0.108
  0
VERTEX
  8
GRID
 10
0.574
 20
0.281
 30
0.0
 42
0.107
  0
VERTEX
  8
GRID
 10
0.596
 20
0.261
 30
0.0
 42
0.081
 70
     2
 50
331.494
  0
VERTEX
  8
GRID
 10
0.626
 20
0.251
 30
0.0
 42
0.069
 50
323.856
  0
VERTEX
  8
GRID
 10
0.662
 20
0.25
 30
0.0
 42
0.069
  0
VERTEX
  8
GRID
 10
0.697
 20
0.259
 30
0.0
 42
0.081
  0
VERTEX
  8
GRID
 10
0.724
 20
0.275
 30
0.0
 42
0.107
 70
     2
 50
40.441
  0
VERTEX
  8
GRID
 10
0.742
 20
0.298
 30
0.0
 42
0.137
 50
32.803
  0
VERTEX
  8
GRID
 10
0.746
 20
0.322
 30
0.0
 42
0.137
  0
SEQEND
  8
GRID
  0
POLYLINE
  8
GRID
 66
     1
 10
0.0
 20
0.0
 30
0.0
 70
     4
 75
     6
  0
VERTEX
  8
GRID
 10
0.566
 20
0.298
 30
0.0
 70
    16
  0
VERTEX
  8
GRID
 10
0.566
 20
0.298
 30
0.0
 70
     8
  0
VERTEX
  8
GRID
 10
0.565
 20
0.3
 30
0.0
 70
     8
  0
VERTEX
  8
GRID
 10
0.565
 20
0.303
 30
0.0
 70
     8
  0
VERTEX
  8
GRID
 10
0.564
 20
0.305
 30
0.0
 70
     8
  0
VERTEX
  8
GRID
 10
0.564
 20
0.307
 30
0.0
 70
     8
  0
VERTEX
  8
GRID
 10
0.564
 20
0.309
 30
0.0
 70
     8
  0
VERTEX
  8
GRID
 10
0.563
 20
0.31
 30
0.0
 70
     8
  0
VERTEX
  8
GRID
 10
0.563
 20
0.312
 30
0.0
 70
     8
  0
VERTEX
  8
GRID
 10
0.563
 20
0.313
 30
0.0
 70
     8
  0
VERTEX
  8
GRID
 10
0.563
 20
0.314
 30
0.0
 70
     8
  0
VERTEX
  8
GRID
 10
0.563
 20
0.315
 30
0.0
 70
     8
  0
VERTEX
  8
GRID
 10
0.563
 20
0.316
 30
0.0
 70
     8
  0
VERTEX
  8
GRID
 10
0.562
 20
0.317
 30
0.0
 70
     8
  0
VERTEX
  8
GRID
 10
0.562
 20
0.318
 30
0.0
 70
     8
  0
VERTEX
  8
GRID
 10
0.562
 20
0.319
 30
0.0
 70
     8
  0
VERTEX
  8
GRID
 10
0.562
 20
0.319
 30
0.0
 70
     8
  0
VERTEX
  8
GRID
 10
0.562
 20
0.32
 30
0.0
 70
     8
  0
VERTEX
  8
GRID
 10
0.561
 20
0.32
 30
0.0
 70
     8
  0
VERTEX
  8
GRID
 10
0.561
 20
0.321
 30
0.0
 70
     8
  0
VERTEX
  8
GRID
 10
0.561
 20
0.321
 30
0.0
 70
     8
  0
VERTEX
  8
GRID
 10
0.56
 20
0.321
 30
0.0
 70
     8
  0
VERTEX
  8
GRID
 10
0.56
 20
0.322
 30
0.0
 70
     8
  0
VERTEX
  8
GRID
 10
0.559
 20
0.322
 30
0.0
 70
     8
  0
VERTEX
  8
GRID
 10
0.559
 20
0.322
 30
0.0
 70
     8
  0
VERTEX
  8
GRID
 10
0.558
 20
0.322
 30
0.0
 70
     8
  0
VERTEX
  8
GRID
 10
0.558
 20
0.322
 30
0.0
 70
     8
  0
VERTEX
  8
GRID
 10
0.557
 20
0.323
 30
0.0
 70
     8
  0
VERTEX
  8
GRID
 10
0.556
 20
0.323
 30
0.0
 70
     8
  0
VERTEX
  8
GRID
 10
0.555
 20
0.323
 30
0.0
 70
     8
  0
VERTEX
  8
GRID
 10
0.555
 20
0.323
 30
0.0
 70
     8
  0
VERTEX
  8
GRID
 10
0.554
 20
0.322
 30
0.0
 70
     8
  0
VERTEX
  8
GRID
 10
0.553
 20
0.322
 30
0.0
 70
     8
  0
VERTEX
  8
GRID
 10
0.552
 20
0.322
 30
0.0
 70
     8
  0
VERTEX
  8
GRID
 10
0.552
 20
0.322
 30
0.0
 70
     8
  0
VERTEX
  8
GRID
 10
0.551
 20
0.322
 30
0.0
 70
     8
  0
VERTEX
  8
GRID
 10
0.55
 20
0.321
 30
0.0
 70
     8
  0
VERTEX
  8
GRID
 10
0.549
 20
0.321
 30
0.0
 70
     8
  0
VERTEX
  8
GRID
 10
0.549
 20
0.321
 30
0.0
 70
     8
  0
VERTEX
  8
GRID
 10
0.548
 20
0.32
 30
0.0
 70
     8
  0
VERTEX
  8
GRID
 10
0.547
 20
0.319
 30
0.0
 70
     8
  0
VERTEX
  8
GRID
 10
0.546
 20
0.319
 30
0.0
 70
     8
  0
VERTEX
  8
GRID
 10
0.546
 20
0.318
 30
0.0
 70
     8
  0
VERTEX
  8
GRID
 10
0.545
 20
0.317
 30
0.0
 70
     8
  0
VERTEX
  8
GRID
 10
0.545
 20
0.316
 30
0.0
 70
     8
  0
VERTEX
  8
GRID
 10
0.544
 20
0.315
 30
0.0
 70
     8
  0
VERTEX
  8
GRID
 10
0.543
 20
0.314
 30
0.0
 70
     8
  0
VERTEX
  8
GRID
 10
0.543
 20
0.313
 30
0.0
 70
     8
  0
VERTEX
  8
GRID
 10
0.542
 20
0.311
 30
0.0
 70
     8
  0
VERTEX
  8
GRID
 10
0.542
 20
0.31
 30
0.0
 70
     8
  0
VERTEX
  8
GRID
 10
0.541
 20
0.308
 30
0.0
 70
     8
  0
VERTEX
  8
GRID
 10
0.541
 20
0.306
 30
0.0
 70
     8
  0
VERTEX
  8
GRID
 10
0.54
 20
0.303
 30
0.0
 70
     8
  0
VERTEX
  8
GRID
 10
0.539
 20
0.301
 30
0.0
 70
     8
  0
VERTEX
  8
GRID
 10
0.539
 20
0.299
 30
0.0
 70
     8
  0
VERTEX
  8
GRID
 10
0.538
 20
0.296
 30
0.0
 70
     8
  0
VERTEX
  8
GRID
 10
0.538
 20
0.294
 30
0.0
 70
     8
  0
VERTEX
  8
GRID
 10
0.537
 20
0.291
 30
0.0
 70
     8
  0
VERTEX
  8
GRID
 10
0.537
 20
0.289
 30
0.0
 70
     8
  0
VERTEX
  8
GRID
 10
0.537
 20
0.286
 30
0.0
 70
     8
  0
VERTEX
  8
GRID
 10
0.536
 20
0.284
 30
0.0
 70
     8
  0
VERTEX
  8
GRID
 10
0.536
 20
0.281
 30
0.0
 70
     8
  0
VERTEX
  8
GRID
 10
0.536
 20
0.279
 30
0.0
 70
     8
  0
VERTEX
  8
GRID
 10
0.536
 20
0.276
 30
0.0
 70
     8
  0
VERTEX
  8
GRID
 10
0.536
 20
0.274
 30
0.0
 70
     8
  0
VERTEX
  8
GRID
 10
0.536
 20
0.272
 30
0.0
 70
     8
  0
VERTEX
  8
GRID
 10
0.535
 20
0.27
 30
0.0
 70
     8
  0
VERTEX
  8
GRID
 10
0.535
 20
0.268
 30
0.0
 70
     8
  0
VERTEX
  8
GRID
 10
0.535
 20
0.266
 30
0.0
 70
     8
  0
VERTEX
  8
GRID
 10
0.535
 20
0.265
 30
0.0
 70
     8
  0
VERTEX
  8
GRID
 10
0.535
 20
0.263
 30
0.0
 70
     8
  0
VERTEX
  8
GRID
 10
0.535
 20
0.261
 30
0.0
 70
     8
  0
VERTEX
  8
GRID
 10
0.535
 20
0.26
 30
0.0
 70
     8
  0
VERTEX
  8
GRID
 10
0.535
 20
0.258
 30
0.0
 70
     8
  0
VERTEX
  8
GRID
 10
0.535
 20
0.257
 30
0.0
 70
     8
  0
VERTEX
  8
GRID
 10
0.535
 20
0.255
 30
0.0
 70
     8
  0
VERTEX
  8
GRID
 10
0.535
 20
0.254
 30
0.0
 70
     8
  0
VERTEX
  8
GRID
 10
0.535
 20
0.253
 30
0.0
 70
     8
  0
VERTEX
  8
GRID
 10
0.535
 20
0.251
 30
0.0
 70
     8
  0
VERTEX
  8
GRID
 10
0.536
 20
0.25
 30
0.0
 70
     8
  0
VERTEX
  8
GRID
 10
0.536
 20
0.249
 30
0.0
 70
     8
  0
VERTEX
  8
GRID
 10
0.536
 20
0.248
 30
0.0
 70
     8
  0
VERTEX
  8
GRID
 10
0.537
 20
0.247
 30
0.0
 70
     8
  0
VERTEX
  8
GRID
 10
0.537
 20
0.246
 30
0.0
 70
     8
  0
VERTEX
  8
GRID
 10
0.538
 20
0.245
 30
0.0
 70
     8
  0
VERTEX
  8
GRID
 10
0.539
 20
0.245
 30
0.0
 70
     8
  0
VERTEX
  8
GRID
 10
0.541
 20
0.244
 30
0.0
 70
     8
  0
VERTEX
  8
GRID
 10
0.542
 20
0.243
 30
0.0
 70
     8
  0
VERTEX
  8
GRID
 10
0.544
 20
0.242
 30
0.0
 70
     8
  0
VERTEX
  8
GRID
 10
0.547
 20
0.241
 30
0.0
 70
     8
  0
VERTEX
  8
GRID
 10
0.549
 20
0.24
 30
0.0
 70
     8
  0
VERTEX
  8
GRID
 10
0.552
 20
0.239
 30
0.0
 70
     8
  0
VERTEX
  8
GRID
 10
0.556
 20
0.238
 30
0.0
 70
     8
  0
VERTEX
  8
GRID
 10
0.56
 20
0.237
 30
0.0
 70
     8
  0
VERTEX
  8
GRID
 10
0.565
 20
0.235
 30
0.0
 70
     8
  0
VERTEX
  8
GRID
 10
0.57
 20
0.234
 30
0.0
 70
     8
  0
VERTEX
  8
GRID
 10
0.576
 20
0.232
 30
0.0
 70
     8
  0
VERTEX
  8
GRID
 10
0.583
 20
0.23
 30
0.0
 70
     8
  0
VERTEX
  8
GRID
 10
0.564
 20
0.305
 30
0.0
 70
    16
  0
VERTEX
  8
GRID
 10
0.563
 20
0.314
 30
0.0
 70
    16
  0
VERTEX
  8
GRID
 10
0.562
 20
0.32
 30
0.0
 70
    16
  0
VERTEX
  8
GRID
 10
0.559
 20
0.323
 30
0.0
 70
    16
  0
VERTEX
  8
GRID
 10
0.552
 20
0.323
 30
0.0
 70
    16
  0
VERTEX
  8
GRID
 10
0.546
 20
0.32
 30
0.0
 70
    16
  0
VERTEX
  8
GRID
 10
0.542
 20
0.312
 30
0.0
 70
    16
  0
VERTEX
  8
GRID
 10
0.537
 20
0.291
 30
0.0
 70
    16
  0
VERTEX
  8
GRID
 10
0.535
 20
0.271
 30
0.0
 70
    16
  0
VERTEX
  8
GRID
 10
0.535
 20
0.258
 30
0.0
 70
    16
  0
VERTEX
  8
GRID
 10
0.535
 20
0.247
 30
0.0
 70
    16
  0
VERTEX
  8
GRID
 10
0.543
 20
0.242
 30
0.0
 70
    16
  0
VERTEX
  8
GRID
 10
0.564
 20
0.235
 30
0.0
 70
    16
  0
VERTEX
  8
GRID
 10
0.583
 20
0.23
 30
0.0
 70
    16
  0
SEQEND
  8
GRID
  0
POLYLINE
  8
GRID
 66
     1
 10
0.0
 20
0.0
 30
0.0
  0
VERTEX
  8
GRID
 10
0.839
 20
0.598
 30
0.0
 42
0.07
 70
     2
 50
157.928
  0
VERTEX
  8
GRID
 10
0.791
 20
0.61
 30
0.0
 42
0.056
 50
162.553
  0
VERTEX
  8
GRID
 10
0.73
 20
0.61
 30
0.0
 42
0.056
  0
VERTEX
  8
GRID
 10
0.67
 20
0.596
 30
0.0
 42
0.07
  0
VERTEX
  8
GRID
 10
0.626
 20
0.573
 30
0.0
 42
0.106
 70
     2
 50
215.514
  0
VERTEX
  8
GRID
 10
0.595
 20
0.539
 30
0.0
 42
0.163
 50
220.138
  0
VERTEX
  8
GRID
 10
0.589
 20
0.509
 30
0.0
 42
0.066
  0
VERTEX
  8
GRID
 10
0.592
 20
0.497
 30
0.0
 42
0.106
  0
SEQEND
  8
GRID
  0
POLYLINE
  8
GRID
 66
     1
 10
0.0
 20
0.0
 30
0.0
  0
VERTEX
  8
GRID
 10
0.771
 20
0.591
 30
0.0
 42
0.086
  0
VERTEX
  8
GRID
 10
0.754
 20
0.597
 30
0.0
 42
0.075
 70
     2
 50
171.612
  0
VERTEX
  8
GRID
 10
0.73
 20
0.597
 30
0.0
 42
0.062
 50
175.386
  0
VERTEX
  8
GRID
 10
0.702
 20
0.589
 30
0.0
 42
0.062
  0
VERTEX
  8
GRID
 10
0.677
 20
0.575
 30
0.0
 42
0.075
  0
VERTEX
  8
GRID
 10
0.66
 20
0.557
 30
0.0
 42
0.107
 70
     2
 50
234.386
  0
VERTEX
  8
GRID
 10
0.651
 20
0.537
 30
0.0
 42
0.139
 50
238.16
  0
VERTEX
  8
GRID
 10
0.652
 20
0.522
 30
0.0
 42
0.15
  0
SEQEND
  8
GRID
  0
POLYLINE
  8
GRID
 66
     1
 10
0.0
 20
0.0
 30
0.0
 70
     4
 75
     6
  0
VERTEX
  8
GRID
 10
0.839
 20
0.598
 30
0.0
 70
    16
  0
VERTEX
  8
GRID
 10
0.839
 20
0.598
 30
0.0
 70
     8
  0
VERTEX
  8
GRID
 10
0.839
 20
0.594
 30
0.0
 70
     8
  0
VERTEX
  8
GRID
 10
0.839
 20
0.591
 30
0.0
 70
     8
  0
VERTEX
  8
GRID
 10
0.839
 20
0.588
 30
0.0
 70
     8
  0
VERTEX
  8
GRID
 10
0.839
 20
0.585
 30
0.0
 70
     8
  0
VERTEX
  8
GRID
 10
0.839
 20
0.582
 30
0.0
 70
     8
  0
VERTEX
  8
GRID
 10
0.839
 20
0.579
 30
0.0
 70
     8
  0
VERTEX
  8
GRID
 10
0.839
 20
0.576
 30
0.0
 70
     8
  0
VERTEX
  8
GRID
 10
0.839
 20
0.574
 30
0.0
 70
     8
  0
VERTEX
  8
GRID
 10
0.838
 20
0.571
 30
0.0
 70
     8
  0
VERTEX
  8
GRID
 10
0.838
 20
0.568
 30
0.0
 70
     8
  0
VERTEX
  8
GRID
 10
0.838
 20
0.566
 30
0.0
 70
     8
  0
VERTEX
  8
GRID
 10
0.838
 20
0.564
 30
0.0
 70
     8
  0
VERTEX
  8
GRID
 10
0.838
 20
0.561
 30
0.0
 70
     8
  0
VERTEX
  8
GRID
 10
0.838
 20
0.559
 30
0.0
 70
     8
  0
VERTEX
  8
GRID
 10
0.837
 20
0.557
 30
0.0
 70
     8
  0
VERTEX
  8
GRID
 10
0.837
 20
0.555
 30
0.0
 70
     8
  0
VERTEX
  8
GRID
 10
0.837
 20
0.553
 30
0.0
 70
     8
  0
VERTEX
  8
GRID
 10
0.837
 20
0.552
 30
0.0
 70
     8
  0
VERTEX
  8
GRID
 10
0.837
 20
0.55
 30
0.0
 70
     8
  0
VERTEX
  8
GRID
 10
0.836
 20
0.549
 30
0.0
 70
     8
  0
VERTEX
  8
GRID
 10
0.836
 20
0.548
 30
0.0
 70
     8
  0
VERTEX
  8
GRID
 10
0.836
 20
0.546
 30
0.0
 70
     8
  0
VERTEX
  8
GRID
 10
0.836
 20
0.545
 30
0.0
 70
     8
  0
VERTEX
  8
GRID
 10
0.835
 20
0.544
 30
0.0
 70
     8
  0
VERTEX
  8
GRID
 10
0.835
 20
0.543
 30
0.0
 70
     8
  0
VERTEX
  8
GRID
 10
0.834
 20
0.542
 30
0.0
 70
     8
  0
VERTEX
  8
GRID
 10
0.834
 20
0.541
 30
0.0
 70
     8
  0
VERTEX
  8
GRID
 10
0.834
 20
0.539
 30
0.0
 70
     8
  0
VERTEX
  8
GRID
 10
0.833
 20
0.539
 30
0.0
 70
     8
  0
VERTEX
  8
GRID
 10
0.833
 20
0.538
 30
0.0
 70
     8
  0
VERTEX
  8
GRID
 10
0.832
 20
0.537
 30
0.0
 70
     8
  0
VERTEX
  8
GRID
 10
0.832
 20
0.536
 30
0.0
 70
     8
  0
VERTEX
  8
GRID
 10
0.832
 20
0.535
 30
0.0
 70
     8
  0
VERTEX
  8
GRID
 10
0.831
 20
0.534
 30
0.0
 70
     8
  0
VERTEX
  8
GRID
 10
0.831
 20
0.534
 30
0.0
 70
     8
  0
VERTEX
  8
GRID
 10
0.83
 20
0.533
 30
0.0
 70
     8
  0
VERTEX
  8
GRID
 10
0.83
 20
0.533
 30
0.0
 70
     8
  0
VERTEX
  8
GRID
 10
0.83
 20
0.532
 30
0.0
 70
     8
  0
VERTEX
  8
GRID
 10
0.829
 20
0.532
 30
0.0
 70
     8
  0
VERTEX
  8
GRID
 10
0.829
 20
0.532
 30
0.0
 70
     8
  0
VERTEX
  8
GRID
 10
0.828
 20
0.531
 30
0.0
 70
     8
  0
VERTEX
  8
GRID
 10
0.828
 20
0.531
 30
0.0
 70
     8
  0
VERTEX
  8
GRID
 10
0.828
 20
0.531
 30
0.0
 70
     8
  0
VERTEX
  8
GRID
 10
0.827
 20
0.531
 30
0.0
 70
     8
  0
VERTEX
  8
GRID
 10
0.827
 20
0.53
 30
0.0
 70
     8
  0
VERTEX
  8
GRID
 10
0.826
 20
0.53
 30
0.0
 70
     8
  0
VERTEX
  8
GRID
 10
0.825
 20
0.53
 30
0.0
 70
     8
  0
VERTEX
  8
GRID
 10
0.825
 20
0.53
 30
0.0
 70
     8
  0
VERTEX
  8
GRID
 10
0.824
 20
0.53
 30
0.0
 70
     8
  0
VERTEX
  8
GRID
 10
0.824
 20
0.53
 30
0.0
 70
     8
  0
VERTEX
  8
GRID
 10
0.823
 20
0.53
 30
0.0
 70
     8
  0
VERTEX
  8
GRID
 10
0.822
 20
0.531
 30
0.0
 70
     8
  0
VERTEX
  8
GRID
 10
0.821
 20
0.531
 30
0.0
 70
     8
  0
VERTEX
  8
GRID
 10
0.821
 20
0.531
 30
0.0
 70
     8
  0
VERTEX
  8
GRID
 10
0.82
 20
0.531
 30
0.0
 70
     8
  0
VERTEX
  8
GRID
 10
0.819
 20
0.531
 30
0.0
 70
     8
  0
VERTEX
  8
GRID
 10
0.818
 20
0.532
 30
0.0
 70
     8
  0
VERTEX
  8
GRID
 10
0.818
 20
0.532
 30
0.0
 70
     8
  0
VERTEX
  8
GRID
 10
0.817
 20
0.533
 30
0.0
 70
     8
  0
VERTEX
  8
GRID
 10
0.817
 20
0.533
 30
0.0
 70
     8
  0
VERTEX
  8
GRID
 10
0.816
 20
0.533
 30
0.0
 70
     8
  0
VERTEX
  8
GRID
 10
0.816
 20
0.534
 30
0.0
 70
     8
  0
VERTEX
  8
GRID
 10
0.815
 20
0.535
 30
0.0
 70
     8
  0
VERTEX
  8
GRID
 10
0.815
 20
0.535
 30
0.0
 70
     8
  0
VERTEX
  8
GRID
 10
0.814
 20
0.536
 30
0.0
 70
     8
  0
VERTEX
  8
GRID
 10
0.813
 20
0.537
 30
0.0
 70
     8
  0
VERTEX
  8
GRID
 10
0.813
 20
0.538
 30
0.0
 70
     8
  0
VERTEX
  8
GRID
 10
0.813
 20
0.539
 30
0.0
 70
     8
  0
VERTEX
  8
GRID
 10
0.812
 20
0.54
 30
0.0
 70
     8
  0
VERTEX
  8
GRID
 10
0.811
 20
0.541
 30
0.0
 70
     8
  0
VERTEX
  8
GRID
 10
0.811
 20
0.543
 30
0.0
 70
     8
  0
VERTEX
  8
GRID
 10
0.81
 20
0.544
 30
0.0
 70
     8
  0
VERTEX
  8
GRID
 10
0.81
 20
0.545
 30
0.0
 70
     8
  0
VERTEX
  8
GRID
 10
0.809
 20
0.546
 30
0.0
 70
     8
  0
VERTEX
  8
GRID
 10
0.809
 20
0.548
 30
0.0
 70
     8
  0
VERTEX
  8
GRID
 10
0.808
 20
0.549
 30
0.0
 70
     8
  0
VERTEX
  8
GRID
 10
0.808
 20
0.551
 30
0.0
 70
     8
  0
VERTEX
  8
GRID
 10
0.807
 20
0.552
 30
0.0
 70
     8
  0
VERTEX
  8
GRID
 10
0.806
 20
0.554
 30
0.0
 70
     8
  0
VERTEX
  8
GRID
 10
0.806
 20
0.555
 30
0.0
 70
     8
  0
VERTEX
  8
GRID
 10
0.805
 20
0.556
 30
0.0
 70
     8
  0
VERTEX
  8
GRID
 10
0.805
 20
0.558
 30
0.0
 70
     8
  0
VERTEX
  8
GRID
 10
0.804
 20
0.559
 30
0.0
 70
     8
  0
VERTEX
  8
GRID
 10
0.803
 20
0.561
 30
0.0
 70
     8
  0
VERTEX
  8
GRID
 10
0.802
 20
0.562
 30
0.0
 70
     8
  0
VERTEX
  8
GRID
 10
0.802
 20
0.563
 30
0.0
 70
     8
  0
VERTEX
  8
GRID
 10
0.801
 20
0.565
 30
0.0
 70
     8
  0
VERTEX
  8
GRID
 10
0.8
 20
0.566
 30
0.0
 70
     8
  0
VERTEX
  8
GRID
 10
0.8
 20
0.567
 30
0.0
 70
     8
  0
VERTEX
  8
GRID
 10
0.799
 20
0.568
 30
0.0
 70
     8
  0
VERTEX
  8
GRID
 10
0.798
 20
0.57
 30
0.0
 70
     8
  0
VERTEX
  8
GRID
 10
0.797
 20
0.571
 30
0.0
 70
     8
  0
VERTEX
  8
GRID
 10
0.796
 20
0.572
 30
0.0
 70
     8
  0
VERTEX
  8
GRID
 10
0.795
 20
0.573
 30
0.0
 70
     8
  0
VERTEX
  8
GRID
 10
0.794
 20
0.574
 30
0.0
 70
     8
  0
VERTEX
  8
GRID
 10
0.794
 20
0.575
 30
0.0
 70
     8
  0
VERTEX
  8
GRID
 10
0.793
 20
0.576
 30
0.0
 70
     8
  0
VERTEX
  8
GRID
 10
0.791
 20
0.577
 30
0.0
 70
     8
  0
VERTEX
  8
GRID
 10
0.79
 20
0.579
 30
0.0
 70
     8
  0
VERTEX
  8
GRID
 10
0.789
 20
0.58
 30
0.0
 70
     8
  0
VERTEX
  8
GRID
 10
0.788
 20
0.581
 30
0.0
 70
     8
  0
VERTEX
  8
GRID
 10
0.787
 20
0.582
 30
0.0
 70
     8
  0
VERTEX
  8
GRID
 10
0.786
 20
0.583
 30
0.0
 70
     8
  0
VERTEX
  8
GRID
 10
0.785
 20
0.584
 30
0.0
 70
     8
  0
VERTEX
  8
GRID
 10
0.783
 20
0.585
 30
0.0
 70
     8
  0
VERTEX
  8
GRID
 10
0.782
 20
0.585
 30
0.0
 70
     8
  0
VERTEX
  8
GRID
 10
0.781
 20
0.586
 30
0.0
 70
     8
  0
VERTEX
  8
GRID
 10
0.779
 20
0.587
 30
0.0
 70
     8
  0
VERTEX
  8
GRID
 10
0.777
 20
0.588
 30
0.0
 70
     8
  0
VERTEX
  8
GRID
 10
0.775
 20
0.589
 30
0.0
 70
     8
  0
VERTEX
  8
GRID
 10
0.773
 20
0.59
 30
0.0
 70
     8
  0
VERTEX
  8
GRID
 10
0.771
 20
0.591
 30
0.0
 70
     8
  0
VERTEX
  8
GRID
 10
0.839
 20
0.588
 30
0.0
 70
    16
  0
VERTEX
  8
GRID
 10
0.839
 20
0.573
 30
0.0
 70
    16
  0
VERTEX
  8
GRID
 10
0.837
 20
0.554
 30
0.0
 70
    16
  0
VERTEX
  8
GRID
 10
0.835
 20
0.544
 30
0.0
 70
    16
  0
VERTEX
  8
GRID
 10
0.832
 20
0.535
 30
0.0
 70
    16
  0
VERTEX
  8
GRID
 10
0.829
 20
0.531
 30
0.0
 70
    16
  0
VERTEX
  8
GRID
 10
0.825
 20
0.53
 30
0.0
 70
    16
  0
VERTEX
  8
GRID
 10
0.819
 20
0.531
 30
0.0
 70
    16
  0
VERTEX
  8
GRID
 10
0.814
 20
0.535
 30
0.0
 70
    16
  0
VERTEX
  8
GRID
 10
0.811
 20
0.543
 30
0.0
 70
    16
  0
VERTEX
  8
GRID
 10
0.806
 20
0.555
 30
0.0
 70
    16
  0
VERTEX
  8
GRID
 10
0.8
 20
0.566
 30
0.0
 70
    16
  0
VERTEX
  8
GRID
 10
0.794
 20
0.575
 30
0.0
 70
    16
  0
VERTEX
  8
GRID
 10
0.785
 20
0.584
 30
0.0
 70
    16
  0
VERTEX
  8
GRID
 10
0.778
 20
0.588
 30
0.0
 70
    16
  0
VERTEX
  8
GRID
 10
0.771
 20
0.591
 30
0.0
 70
    16
  0
SEQEND
  8
GRID
  0
POLYLINE
  8
GRID
 66
     1
 10
0.0
 20
0.0
 30
0.0
 70
     4
 75
     6
  0
VERTEX
  8
GRID
 10
0.592
 20
0.497
 30
0.0
 70
    16
  0
VERTEX
  8
GRID
 10
0.592
 20
0.497
 30
0.0
 70
     8
  0
VERTEX
  8
GRID
 10
0.595
 20
0.49
 30
0.0
 70
     8
  0
VERTEX
  8
GRID
 10
0.598
 20
0.484
 30
0.0
 70
     8
  0
VERTEX
  8
GRID
 10
0.601
 20
0.479
 30
0.0
 70
     8
  0
VERTEX
  8
GRID
 10
0.603
 20
0.475
 30
0.0
 70
     8
  0
VERTEX
  8
GRID
 10
0.606
 20
0.471
 30
0.0
 70
     8
  0
VERTEX
  8
GRID
 10
0.608
 20
0.468
 30
0.0
 70
     8
  0
VERTEX
  8
GRID
 10
0.61
 20
0.464
 30
0.0
 70
     8
  0
VERTEX
  8
GRID
 10
0.612
 20
0.461
 30
0.0
 70
     8
  0
VERTEX
  8
GRID
 10
0.615
 20
0.459
 30
0.0
 70
     8
  0
VERTEX
  8
GRID
 10
0.617
 20
0.456
 30
0.0
 70
     8
  0
VERTEX
  8
GRID
 10
0.619
 20
0.453
 30
0.0
 70
     8
  0
VERTEX
  8
GRID
 10
0.621
 20
0.451
 30
0.0
 70
     8
  0
VERTEX
  8
GRID
 10
0.623
 20
0.448
 30
0.0
 70
     8
  0
VERTEX
  8
GRID
 10
0.625
 20
0.446
 30
0.0
 70
     8
  0
VERTEX
  8
GRID
 10
0.628
 20
0.443
 30
0.0
 70
     8
  0
VERTEX
  8
GRID
 10
0.63
 20
0.441
 30
0.0
 70
     8
  0
VERTEX
  8
GRID
 10
0.632
 20
0.439
 30
0.0
 70
     8
  0
VERTEX
  8
GRID
 10
0.635
 20
0.436
 30
0.0
 70
     8
  0
VERTEX
  8
GRID
 10
0.637
 20
0.434
 30
0.0
 70
     8
  0
VERTEX
  8
GRID
 10
0.64
 20
0.432
 30
0.0
 70
     8
  0
VERTEX
  8
GRID
 10
0.643
 20
0.43
 30
0.0
 70
     8
  0
VERTEX
  8
GRID
 10
0.645
 20
0.428
 30
0.0
 70
     8
  0
VERTEX
  8
GRID
 10
0.648
 20
0.426
 30
0.0
 70
     8
  0
VERTEX
  8
GRID
 10
0.651
 20
0.423
 30
0.0
 70
     8
  0
VERTEX
  8
GRID
 10
0.654
 20
0.421
 30
0.0
 70
     8
  0
VERTEX
  8
GRID
 10
0.656
 20
0.419
 30
0.0
 70
     8
  0
VERTEX
  8
GRID
 10
0.659
 20
0.417
 30
0.0
 70
     8
  0
VERTEX
  8
GRID
 10
0.662
 20
0.415
 30
0.0
 70
     8
  0
VERTEX
  8
GRID
 10
0.665
 20
0.414
 30
0.0
 70
     8
  0
VERTEX
  8
GRID
 10
0.668
 20
0.412
 30
0.0
 70
     8
  0
VERTEX
  8
GRID
 10
0.67
 20
0.41
 30
0.0
 70
     8
  0
VERTEX
  8
GRID
 10
0.673
 20
0.408
 30
0.0
 70
     8
  0
VERTEX
  8
GRID
 10
0.676
 20
0.406
 30
0.0
 70
     8
  0
VERTEX
  8
GRID
 10
0.679
 20
0.405
 30
0.0
 70
     8
  0
VERTEX
  8
GRID
 10
0.681
 20
0.403
 30
0.0
 70
     8
  0
VERTEX
  8
GRID
 10
0.684
 20
0.402
 30
0.0
 70
     8
  0
VERTEX
  8
GRID
 10
0.687
 20
0.4
 30
0.0
 70
     8
  0
VERTEX
  8
GRID
 10
0.689
 20
0.399
 30
0.0
 70
     8
  0
VERTEX
  8
GRID
 10
0.692
 20
0.397
 30
0.0
 70
     8
  0
VERTEX
  8
GRID
 10
0.694
 20
0.395
 30
0.0
 70
     8
  0
VERTEX
  8
GRID
 10
0.697
 20
0.394
 30
0.0
 70
     8
  0
VERTEX
  8
GRID
 10
0.699
 20
0.392
 30
0.0
 70
     8
  0
VERTEX
  8
GRID
 10
0.702
 20
0.391
 30
0.0
 70
     8
  0
VERTEX
  8
GRID
 10
0.704
 20
0.389
 30
0.0
 70
     8
  0
VERTEX
  8
GRID
 10
0.707
 20
0.387
 30
0.0
 70
     8
  0
VERTEX
  8
GRID
 10
0.709
 20
0.386
 30
0.0
 70
     8
  0
VERTEX
  8
GRID
 10
0.711
 20
0.384
 30
0.0
 70
     8
  0
VERTEX
  8
GRID
 10
0.713
 20
0.382
 30
0.0
 70
     8
  0
VERTEX
  8
GRID
 10
0.715
 20
0.381
 30
0.0
 70
     8
  0
VERTEX
  8
GRID
 10
0.717
 20
0.379
 30
0.0
 70
     8
  0
VERTEX
  8
GRID
 10
0.719
 20
0.377
 30
0.0
 70
     8
  0
VERTEX
  8
GRID
 10
0.721
 20
0.376
 30
0.0
 70
     8
  0
VERTEX
  8
GRID
 10
0.722
 20
0.374
 30
0.0
 70
     8
  0
VERTEX
  8
GRID
 10
0.724
 20
0.373
 30
0.0
 70
     8
  0
VERTEX
  8
GRID
 10
0.725
 20
0.371
 30
0.0
 70
     8
  0
VERTEX
  8
GRID
 10
0.727
 20
0.369
 30
0.0
 70
     8
  0
VERTEX
  8
GRID
 10
0.728
 20
0.367
 30
0.0
 70
     8
  0
VERTEX
  8
GRID
 10
0.729
 20
0.366
 30
0.0
 70
     8
  0
VERTEX
  8
GRID
 10
0.731
 20
0.364
 30
0.0
 70
     8
  0
VERTEX
  8
GRID
 10
0.732
 20
0.362
 30
0.0
 70
     8
  0
VERTEX
  8
GRID
 10
0.733
 20
0.36
 30
0.0
 70
     8
  0
VERTEX
  8
GRID
 10
0.734
 20
0.358
 30
0.0
 70
     8
  0
VERTEX
  8
GRID
 10
0.735
 20
0.355
 30
0.0
 70
     8
  0
VERTEX
  8
GRID
 10
0.737
 20
0.353
 30
0.0
 70
     8
  0
VERTEX
  8
GRID
 10
0.738
 20
0.351
 30
0.0
 70
     8
  0
VERTEX
  8
GRID
 10
0.739
 20
0.348
 30
0.0
 70
     8
  0
VERTEX
  8
GRID
 10
0.74
 20
0.345
 30
0.0
 70
     8
  0
VERTEX
  8
GRID
 10
0.741
 20
0.342
 30
0.0
 70
     8
  0
VERTEX
  8
GRID
 10
0.742
 20
0.338
 30
0.0
 70
     8
  0
VERTEX
  8
GRID
 10
0.744
 20
0.333
 30
0.0
 70
     8
  0
VERTEX
  8
GRID
 10
0.745
 20
0.328
 30
0.0
 70
     8
  0
VERTEX
  8
GRID
 10
0.746
 20
0.322
 30
0.0
 70
     8
  0
VERTEX
  8
GRID
 10
0.6
 20
0.478
 30
0.0
 70
    16
  0
VERTEX
  8
GRID
 10
0.613
 20
0.46
 30
0.0
 70
    16
  0
VERTEX
  8
GRID
 10
0.629
 20
0.441
 30
0.0
 70
    16
  0
VERTEX
  8
GRID
 10
0.651
 20
0.423
 30
0.0
 70
    16
  0
VERTEX
  8
GRID
 10
0.674
 20
0.408
 30
0.0
 70
    16
  0
VERTEX
  8
GRID
 10
0.694
 20
0.396
 30
0.0
 70
    16
  0
VERTEX
  8
GRID
 10
0.715
 20
0.382
 30
0.0
 70
    16
  0
VERTEX
  8
GRID
 10
0.727
 20
0.37
 30
0.0
 70
    16
  0
VERTEX
  8
GRID
 10
0.737
 20
0.354
 30
0.0
 70
    16
  0
VERTEX
  8
GRID
 10
0.743
 20
0.34
 30
0.0
 70
    16
  0
VERTEX
  8
GRID
 10
0.746
 20
0.322
 30
0.0
 70
    16
  0
SEQEND
  8
GRID
  0
POLYLINE
  8
GRID
 66
     1
 10
0.0
 20
0.0
 30
0.0
 70
     4
 75
     6
  0
VERTEX
  8
GRID
 10
0.652
 20
0.522
 30
0.0
 70
    16
  0
VERTEX
  8
GRID
 10
0.652
 20
0.522
 30
0.0
 70
     8
  0
VERTEX
  8
GRID
 10
0.654
 20
0.517
 30
0.0
 70
     8
  0
VERTEX
  8
GRID
 10
0.656
 20
0.513
 30
0.0
 70
     8
  0
VERTEX
  8
GRID
 10
0.657
 20
0.509
 30
0.0
 70
     8
  0
VERTEX
  8
GRID
 10
0.659
 20
0.506
 30
0.0
 70
     8
  0
VERTEX
  8
GRID
 10
0.66
 20
0.504
 30
0.0
 70
     8
  0
VERTEX
  8
GRID
 10
0.661
 20
0.502
 30
0.0
 70
     8
  0
VERTEX
  8
GRID
 10
0.662
 20
0.5
 30
0.0
 70
     8
  0
VERTEX
  8
GRID
 10
0.663
 20
0.498
 30
0.0
 70
     8
  0
VERTEX
  8
GRID
 10
0.665
 20
0.496
 30
0.0
 70
     8
  0
VERTEX
  8
GRID
 10
0.666
 20
0.495
 30
0.0
 70
     8
  0
VERTEX
  8
GRID
 10
0.667
 20
0.493
 30
0.0
 70
     8
  0
VERTEX
  8
GRID
 10
0.668
 20
0.491
 30
0.0
 70
     8
  0
VERTEX
  8
GRID
 10
0.67
 20
0.49
 30
0.0
 70
     8
  0
VERTEX
  8
GRID
 10
0.671
 20
0.489
 30
0.0
 70
     8
  0
VERTEX
  8
GRID
 10
0.672
 20
0.487
 30
0.0
 70
     8
  0
VERTEX
  8
GRID
 10
0.674
 20
0.486
 30
0.0
 70
     8
  0
VERTEX
  8
GRID
 10
0.676
 20
0.484
 30
0.0
 70
     8
  0
VERTEX
  8
GRID
 10
0.677
 20
0.483
 30
0.0
 70
     8
  0
VERTEX
  8
GRID
 10
0.679
 20
0.481
 30
0.0
 70
     8
  0
VERTEX
  8
GRID
 10
0.681
 20
0.48
 30
0.0
 70
     8
  0
VERTEX
  8
GRID
 10
0.683
 20
0.478
 30
0.0
 70
     8
  0
VERTEX
  8
GRID
 10
0.685
 20
0.477
 30
0.0
 70
     8
  0
VERTEX
  8
GRID
 10
0.687
 20
0.476
 30
0.0
 70
     8
  0
VERTEX
  8
GRID
 10
0.689
 20
0.474
 30
0.0
 70
     8
  0
VERTEX
  8
GRID
 10
0.691
 20
0.473
 30
0.0
 70
     8
  0
VERTEX
  8
GRID
 10
0.693
 20
0.471
 30
0.0
 70
     8
  0
VERTEX
  8
GRID
 10
0.695
 20
0.47
 30
0.0
 70
     8
  0
VERTEX
  8
GRID
 10
0.696
 20
0.468
 30
0.0
 70
     8
  0
VERTEX
  8
GRID
 10
0.698
 20
0.467
 30
0.0
 70
     8
  0
VERTEX
  8
GRID
 10
0.7
 20
0.465
 30
0.0
 70
     8
  0
VERTEX
  8
GRID
 10
0.702
 20
0.464
 30
0.0
 70
     8
  0
VERTEX
  8
GRID
 10
0.704
 20
0.463
 30
0.0
 70
     8
  0
VERTEX
  8
GRID
 10
0.706
 20
0.461
 30
0.0
 70
     8
  0
VERTEX
  8
GRID
 10
0.708
 20
0.46
 30
0.0
 70
     8
  0
VERTEX
  8
GRID
 10
0.71
 20
0.458
 30
0.0
 70
     8
  0
VERTEX
  8
GRID
 10
0.712
 20
0.456
 30
0.0
 70
     8
  0
VERTEX
  8
GRID
 10
0.714
 20
0.455
 30
0.0
 70
     8
  0
VERTEX
  8
GRID
 10
0.716
 20
0.453
 30
0.0
 70
     8
  0
VERTEX
  8
GRID
 10
0.719
 20
0.451
 30
0.0
 70
     8
  0
VERTEX
  8
GRID
 10
0.721
 20
0.449
 30
0.0
 70
     8
  0
VERTEX
  8
GRID
 10
0.724
 20
0.447
 30
0.0
 70
     8
  0
VERTEX
  8
GRID
 10
0.727
 20
0.444
 30
0.0
 70
     8
  0
VERTEX
  8
GRID
 10
0.729
 20
0.442
 30
0.0
 70
     8
  0
VERTEX
  8
GRID
 10
0.732
 20
0.44
 30
0.0
 70
     8
  0
VERTEX
  8
GRID
 10
0.735
 20
0.437
 30
0.0
 70
     8
  0
VERTEX
  8
GRID
 10
0.738
 20
0.434
 30
0.0
 70
     8
  0
VERTEX
  8
GRID
 10
0.741
 20
0.432
 30
0.0
 70
     8
  0
VERTEX
  8
GRID
 10
0.744
 20
0.429
 30
0.0
 70
     8
  0
VERTEX
  8
GRID
 10
0.747
 20
0.427
 30
0.0
 70
     8
  0
VERTEX
  8
GRID
 10
0.75
 20
0.424
 30
0.0
 70
     8
  0
VERTEX
  8
GRID
 10
0.753
 20
0.422
 30
0.0
 70
     8
  0
VERTEX
  8
GRID
 10
0.755
 20
0.419
 30
0.0
 70
     8
  0
VERTEX
  8
GRID
 10
0.758
 20
0.417
 30
0.0
 70
     8
  0
VERTEX
  8
GRID
 10
0.76
 20
0.414
 30
0.0
 70
     8
  0
VERTEX
  8
GRID
 10
0.763
 20
0.412
 30
0.0
 70
     8
  0
VERTEX
  8
GRID
 10
0.765
 20
0.409
 30
0.0
 70
     8
  0
VERTEX
  8
GRID
 10
0.767
 20
0.407
 30
0.0
 70
     8
  0
VERTEX
  8
GRID
 10
0.769
 20
0.405
 30
0.0
 70
     8
  0
VERTEX
  8
GRID
 10
0.771
 20
0.403
 30
0.0
 70
     8
  0
VERTEX
  8
GRID
 10
0.773
 20
0.401
 30
0.0
 70
     8
  0
VERTEX
  8
GRID
 10
0.775
 20
0.399
 30
0.0
 70
     8
  0
VERTEX
  8
GRID
 10
0.777
 20
0.397
 30
0.0
 70
     8
  0
VERTEX
  8
GRID
 10
0.778
 20
0.395
 30
0.0
 70
     8
  0
VERTEX
  8
GRID
 10
0.78
 20
0.393
 30
0.0
 70
     8
  0
VERTEX
  8
GRID
 10
0.782
 20
0.391
 30
0.0
 70
     8
  0
VERTEX
  8
GRID
 10
0.783
 20
0.389
 30
0.0
 70
     8
  0
VERTEX
  8
GRID
 10
0.785
 20
0.387
 30
0.0
 70
     8
  0
VERTEX
  8
GRID
 10
0.787
 20
0.385
 30
0.0
 70
     8
  0
VERTEX
  8
GRID
 10
0.788
 20
0.383
 30
0.0
 70
     8
  0
VERTEX
  8
GRID
 10
0.79
 20
0.381
 30
0.0
 70
     8
  0
VERTEX
  8
GRID
 10
0.791
 20
0.378
 30
0.0
 70
     8
  0
VERTEX
  8
GRID
 10
0.793
 20
0.376
 30
0.0
 70
     8
  0
VERTEX
  8
GRID
 10
0.795
 20
0.373
 30
0.0
 70
     8
  0
VERTEX
  8
GRID
 10
0.796
 20
0.37
 30
0.0
 70
     8
  0
VERTEX
  8
GRID
 10
0.798
 20
0.367
 30
0.0
 70
     8
  0
VERTEX
  8
GRID
 10
0.8
 20
0.364
 30
0.0
 70
     8
  0
VERTEX
  8
GRID
 10
0.801
 20
0.36
 30
0.0
 70
     8
  0
VERTEX
  8
GRID
 10
0.803
 20
0.355
 30
0.0
 70
     8
  0
VERTEX
  8
GRID
 10
0.805
 20
0.349
 30
0.0
 70
     8
  0
VERTEX
  8
GRID
 10
0.806
 20
0.343
 30
0.0
 70
     8
  0
VERTEX
  8
GRID
 10
0.657
 20
0.508
 30
0.0
 70
    16
  0
VERTEX
  8
GRID
 10
0.663
 20
0.497
 30
0.0
 70
    16
  0
VERTEX
  8
GRID
 10
0.673
 20
0.486
 30
0.0
 70
    16
  0
VERTEX
  8
GRID
 10
0.689
 20
0.474
 30
0.0
 70
    16
  0
VERTEX
  8
GRID
 10
0.704
 20
0.463
 30
0.0
 70
    16
  0
VERTEX
  8
GRID
 10
0.719
 20
0.45
 30
0.0
 70
    16
  0
VERTEX
  8
GRID
 10
0.745
 20
0.429
 30
0.0
 70
    16
  0
VERTEX
  8
GRID
 10
0.766
 20
0.409
 30
0.0
 70
    16
  0
VERTEX
  8
GRID
 10
0.78
 20
0.393
 30
0.0
 70
    16
  0
VERTEX
  8
GRID
 10
0.793
 20
0.378
 30
0.0
 70
    16
  0
VERTEX
  8
GRID
 10
0.802
 20
0.361
 30
0.0
 70
    16
  0
VERTEX
  8
GRID
 10
0.806
 20
0.343
 30
0.0
 70
    16
  0
SEQEND
  8
GRID
  0
POLYLINE
  8
GRID
 66
     1
 10
0.0
 20
0.0
 30
0.0
  0
VERTEX
  8
GRID
 10
0.583
 20
0.23
 30
0.0
 42
0.057
 70
     2
 50
342.928
  0
VERTEX
  8
GRID
 10
0.621
 20
0.226
 30
0.0
 42
0.058
 50
342.111
  0
VERTEX
  8
GRID
 10
0.68
 20
0.232
 30
0.0
 42
0.058
  0
VERTEX
  8
GRID
 10
0.737
 20
0.252
 30
0.0
 42
0.072
  0
VERTEX
  8
GRID
 10
0.777
 20
0.279
 30
0.0
 42
0.107
 70
     2
 50
42.396
  0
VERTEX
  8
GRID
 10
0.803
 20
0.316
 30
0.0
 42
0.088
 50
41.579
  0
VERTEX
  8
GRID
 10
0.807
 20
0.333
 30
0.0
 42
0.158
  0
SEQEND
  8
GRID
  0
POLYLINE
  8
GRID
 66
     1
 10
0.0
 20
0.0
 30
0.0
 70
     4
 75
     6
  0
VERTEX
  8
GRID
 10
0.806
 20
0.343
 30
0.0
 70
    16
  0
VERTEX
  8
GRID
 10
0.806
 20
0.343
 30
0.0
 70
     8
  0
VERTEX
  8
GRID
 10
0.807
 20
0.342
 30
0.0
 70
     8
  0
VERTEX
  8
GRID
 10
0.807
 20
0.341
 30
0.0
 70
     8
  0
VERTEX
  8
GRID
 10
0.807
 20
0.339
 30
0.0
 70
     8
  0
VERTEX
  8
GRID
 10
0.807
 20
0.338
 30
0.0
 70
     8
  0
VERTEX
  8
GRID
 10
0.807
 20
0.337
 30
0.0
 70
     8
  0
VERTEX
  8
GRID
 10
0.807
 20
0.335
 30
0.0
 70
     8
  0
VERTEX
  8
GRID
 10
0.807
 20
0.334
 30
0.0
 70
     8
  0
VERTEX
  8
GRID
 10
0.807
 20
0.333
 30
0.0
 70
     8
  0
VERTEX
  8
GRID
 10
0.807
 20
0.34
 30
0.0
 70
    16
  0
VERTEX
  8
GRID
 10
0.807
 20
0.336
 30
0.0
 70
    16
  0
VERTEX
  8
GRID
 10
0.807
 20
0.333
 30
0.0
 70
    16
  0
SEQEND
  8
GRID
  0
POLYLINE
  8
GRID
 66
     1
 10
0.0
 20
0.0
 30
0.0
  0
VERTEX
  8
GRID
 10
0.92
 20
0.498
 30
0.0
 42
0.055
 70
     2
 50
222.049
  0
VERTEX
  8
GRID
 10
0.9
 20
0.469
 30
0.0
 42
0.074
 50
222.049
  0
VERTEX
  8
GRID
 10
0.878
 20
0.411
 30
0.0
 42
0.074
  0
VERTEX
  8
GRID
 10
0.874
 20
0.348
 30
0.0
 42
0.085
  0
VERTEX
  8
GRID
 10
0.888
 20
0.296
 30
0.0
 42
0.106
 70
     2
 50
294.447
  0
VERTEX
  8
GRID
 10
0.92
 20
0.254
 30
0.0
 42
0.06
 50
294.447
  0
VERTEX
  8
GRID
 10
0.936
 20
0.242
 30
0.0
 42
0.129
  0
SEQEND
  8
GRID
  0
POLYLINE
  8
GRID
 66
     1
 10
0.0
 20
0.0
 30
0.0
  0
VERTEX
  8
GRID
 10
0.936
 20
0.242
 30
0.0
 42
0.047
 70
     2
 50
334.534
  0
VERTEX
  8
GRID
 10
0.978
 20
0.23
 30
0.0
 42
0.053
 50
332.708
  0
VERTEX
  8
GRID
 10
1.054
 20
0.225
 30
0.0
 42
0.04
  0
VERTEX
  8
GRID
 10
1.112
 20
0.231
 30
0.0
 42
0.067
  0
SEQEND
  8
GRID
  0
POLYLINE
  8
GRID
 66
     1
 10
0.0
 20
0.0
 30
0.0
  0
VERTEX
  8
GRID
 10
1.166
 20
0.574
 30
0.0
 42
0.174
  0
VERTEX
  8
GRID
 10
1.13
 20
0.585
 30
0.0
 42
0.104
  0
VERTEX
  8
GRID
 10
1.071
 20
0.569
 30
0.0
 42
0.065
 70
     2
 50
206.747
  0
VERTEX
  8
GRID
 10
1.016
 20
0.532
 30
0.0
 42
0.04
 50
206.747
  0
VERTEX
  8
GRID
 10
0.971
 20
0.484
 30
0.0
 42
0.052
  0
SEQEND
  8
GRID
  0
POLYLINE
  8
GRID
 66
     1
 10
0.0
 20
0.0
 30
0.0
  0
VERTEX
  8
GRID
 10
1.185
 20
0.547
 30
0.0
 42
0.154
 50
80.269
  0
VERTEX
  8
GRID
 10
1.166
 20
0.574
 30
0.0
 42
0.174
  0
SEQEND
  8
GRID
  0
POLYLINE
  8
GRID
 66
     1
 10
0.0
 20
0.0
 30
0.0
  0
VERTEX
  8
GRID
 10
0.932
 20
0.394
 30
0.0
 42
0.064
  0
VERTEX
  8
GRID
 10
0.932
 20
0.336
 30
0.0
 42
0.105
 70
     2
 50
276.969
  0
VERTEX
  8
GRID
 10
0.95
 20
0.283
 30
0.0
 42
0.171
 50
207.292
  0
VERTEX
  8
GRID
 10
0.977
 20
0.26
 30
0.0
 42
0.171
  0
SEQEND
  8
GRID
  0
POLYLINE
  8
GRID
 66
     1
 10
0.0
 20
0.0
 30
0.0
  0
VERTEX
  8
GRID
 10
0.977
 20
0.26
 30
0.0
 42
0.02
  0
VERTEX
  8
GRID
 10
0.983
 20
0.257
 30
0.0
 42
0.072
 70
     2
 50
332.365
  0
VERTEX
  8
GRID
 10
1.017
 20
0.245
 30
0.0
 42
0.059
 50
330.076
  0
VERTEX
  8
GRID
 10
1.06
 20
0.242
 30
0.0
 42
0.041
  0
VERTEX
  8
GRID
 10
1.091
 20
0.246
 30
0.0
 42
0.072
  0
SEQEND
  8
GRID
  0
POLYLINE
  8
GRID
 66
     1
 10
0.0
 20
0.0
 30
0.0
 70
     4
 75
     6
  0
VERTEX
  8
GRID
 10
0.971
 20
0.484
 30
0.0
 70
    16
  0
VERTEX
  8
GRID
 10
0.971
 20
0.484
 30
0.0
 70
     8
  0
VERTEX
  8
GRID
 10
0.967
 20
0.48
 30
0.0
 70
     8
  0
VERTEX
  8
GRID
 10
0.964
 20
0.476
 30
0.0
 70
     8
  0
VERTEX
  8
GRID
 10
0.961
 20
0.472
 30
0.0
 70
     8
  0
VERTEX
  8
GRID
 10
0.959
 20
0.469
 30
0.0
 70
     8
  0
VERTEX
  8
GRID
 10
0.957
 20
0.466
 30
0.0
 70
     8
  0
VERTEX
  8
GRID
 10
0.955
 20
0.463
 30
0.0
 70
     8
  0
VERTEX
  8
GRID
 10
0.954
 20
0.46
 30
0.0
 70
     8
  0
VERTEX
  8
GRID
 10
0.952
 20
0.458
 30
0.0
 70
     8
  0
VERTEX
  8
GRID
 10
0.951
 20
0.455
 30
0.0
 70
     8
  0
VERTEX
  8
GRID
 10
0.95
 20
0.453
 30
0.0
 70
     8
  0
VERTEX
  8
GRID
 10
0.948
 20
0.45
 30
0.0
 70
     8
  0
VERTEX
  8
GRID
 10
0.947
 20
0.448
 30
0.0
 70
     8
  0
VERTEX
  8
GRID
 10
0.946
 20
0.445
 30
0.0
 70
     8
  0
VERTEX
  8
GRID
 10
0.945
 20
0.443
 30
0.0
 70
     8
  0
VERTEX
  8
GRID
 10
0.944
 20
0.441
 30
0.0
 70
     8
  0
VERTEX
  8
GRID
 10
0.943
 20
0.439
 30
0.0
 70
     8
  0
VERTEX
  8
GRID
 10
0.943
 20
0.436
 30
0.0
 70
     8
  0
VERTEX
  8
GRID
 10
0.942
 20
0.434
 30
0.0
 70
     8
  0
VERTEX
  8
GRID
 10
0.941
 20
0.432
 30
0.0
 70
     8
  0
VERTEX
  8
GRID
 10
0.94
 20
0.43
 30
0.0
 70
     8
  0
VERTEX
  8
GRID
 10
0.94
 20
0.427
 30
0.0
 70
     8
  0
VERTEX
  8
GRID
 10
0.939
 20
0.425
 30
0.0
 70
     8
  0
VERTEX
  8
GRID
 10
0.938
 20
0.423
 30
0.0
 70
     8
  0
VERTEX
  8
GRID
 10
0.938
 20
0.421
 30
0.0
 70
     8
  0
VERTEX
  8
GRID
 10
0.937
 20
0.418
 30
0.0
 70
     8
  0
VERTEX
  8
GRID
 10
0.936
 20
0.416
 30
0.0
 70
     8
  0
VERTEX
  8
GRID
 10
0.936
 20
0.413
 30
0.0
 70
     8
  0
VERTEX
  8
GRID
 10
0.935
 20
0.41
 30
0.0
 70
     8
  0
VERTEX
  8
GRID
 10
0.935
 20
0.407
 30
0.0
 70
     8
  0
VERTEX
  8
GRID
 10
0.934
 20
0.403
 30
0.0
 70
     8
  0
VERTEX
  8
GRID
 10
0.933
 20
0.399
 30
0.0
 70
     8
  0
VERTEX
  8
GRID
 10
0.932
 20
0.394
 30
0.0
 70
     8
  0
VERTEX
  8
GRID
 10
0.961
 20
0.472
 30
0.0
 70
    16
  0
VERTEX
  8
GRID
 10
0.951
 20
0.457
 30
0.0
 70
    16
  0
VERTEX
  8
GRID
 10
0.943
 20
0.439
 30
0.0
 70
    16
  0
VERTEX
  8
GRID
 10
0.938
 20
0.421
 30
0.0
 70
    16
  0
VERTEX
  8
GRID
 10
0.935
 20
0.408
 30
0.0
 70
    16
  0
VERTEX
  8
GRID
 10
0.932
 20
0.394
 30
0.0
 70
    16
  0
SEQEND
  8
GRID
  0
POLYLINE
  8
GRID
 66
     1
 10
0.0
 20
0.0
 30
0.0
 70
     4
 75
     6
  0
VERTEX
  8
GRID
 10
1.091
 20
0.246
 30
0.0
 70
    16
  0
VERTEX
  8
GRID
 10
1.091
 20
0.246
 30
0.0
 70
     8
  0
VERTEX
  8
GRID
 10
1.095
 20
0.246
 30
0.0
 70
     8
  0
VERTEX
  8
GRID
 10
1.098
 20
0.247
 30
0.0
 70
     8
  0
VERTEX
  8
GRID
 10
1.101
 20
0.248
 30
0.0
 70
     8
  0
VERTEX
  8
GRID
 10
1.104
 20
0.248
 30
0.0
 70
     8
  0
VERTEX
  8
GRID
 10
1.107
 20
0.249
 30
0.0
 70
     8
  0
VERTEX
  8
GRID
 10
1.109
 20
0.25
 30
0.0
 70
     8
  0
VERTEX
  8
GRID
 10
1.111
 20
0.251
 30
0.0
 70
     8
  0
VERTEX
  8
GRID
 10
1.112
 20
0.251
 30
0.0
 70
     8
  0
VERTEX
  8
GRID
 10
1.114
 20
0.252
 30
0.0
 70
     8
  0
VERTEX
  8
GRID
 10
1.115
 20
0.253
 30
0.0
 70
     8
  0
VERTEX
  8
GRID
 10
1.116
 20
0.254
 30
0.0
 70
     8
  0
VERTEX
  8
GRID
 10
1.118
 20
0.254
 30
0.0
 70
     8
  0
VERTEX
  8
GRID
 10
1.119
 20
0.255
 30
0.0
 70
     8
  0
VERTEX
  8
GRID
 10
1.12
 20
0.256
 30
0.0
 70
     8
  0
VERTEX
  8
GRID
 10
1.121
 20
0.257
 30
0.0
 70
     8
  0
VERTEX
  8
GRID
 10
1.122
 20
0.258
 30
0.0
 70
     8
  0
VERTEX
  8
GRID
 10
1.123
 20
0.259
 30
0.0
 70
     8
  0
VERTEX
  8
GRID
 10
1.124
 20
0.259
 30
0.0
 70
     8
  0
VERTEX
  8
GRID
 10
1.125
 20
0.26
 30
0.0
 70
     8
  0
VERTEX
  8
GRID
 10
1.126
 20
0.261
 30
0.0
 70
     8
  0
VERTEX
  8
GRID
 10
1.126
 20
0.263
 30
0.0
 70
     8
  0
VERTEX
  8
GRID
 10
1.127
 20
0.264
 30
0.0
 70
     8
  0
VERTEX
  8
GRID
 10
1.128
 20
0.265
 30
0.0
 70
     8
  0
VERTEX
  8
GRID
 10
1.129
 20
0.266
 30
0.0
 70
     8
  0
VERTEX
  8
GRID
 10
1.13
 20
0.267
 30
0.0
 70
     8
  0
VERTEX
  8
GRID
 10
1.131
 20
0.269
 30
0.0
 70
     8
  0
VERTEX
  8
GRID
 10
1.131
 20
0.27
 30
0.0
 70
     8
  0
VERTEX
  8
GRID
 10
1.132
 20
0.271
 30
0.0
 70
     8
  0
VERTEX
  8
GRID
 10
1.133
 20
0.273
 30
0.0
 70
     8
  0
VERTEX
  8
GRID
 10
1.133
 20
0.274
 30
0.0
 70
     8
  0
VERTEX
  8
GRID
 10
1.134
 20
0.276
 30
0.0
 70
     8
  0
VERTEX
  8
GRID
 10
1.135
 20
0.277
 30
0.0
 70
     8
  0
VERTEX
  8
GRID
 10
1.135
 20
0.279
 30
0.0
 70
     8
  0
VERTEX
  8
GRID
 10
1.136
 20
0.28
 30
0.0
 70
     8
  0
VERTEX
  8
GRID
 10
1.136
 20
0.281
 30
0.0
 70
     8
  0
VERTEX
  8
GRID
 10
1.137
 20
0.283
 30
0.0
 70
     8
  0
VERTEX
  8
GRID
 10
1.137
 20
0.284
 30
0.0
 70
     8
  0
VERTEX
  8
GRID
 10
1.138
 20
0.285
 30
0.0
 70
     8
  0
VERTEX
  8
GRID
 10
1.138
 20
0.286
 30
0.0
 70
     8
  0
VERTEX
  8
GRID
 10
1.138
 20
0.288
 30
0.0
 70
     8
  0
VERTEX
  8
GRID
 10
1.139
 20
0.288
 30
0.0
 70
     8
  0
VERTEX
  8
GRID
 10
1.139
 20
0.289
 30
0.0
 70
     8
  0
VERTEX
  8
GRID
 10
1.14
 20
0.29
 30
0.0
 70
     8
  0
VERTEX
  8
GRID
 10
1.14
 20
0.291
 30
0.0
 70
     8
  0
VERTEX
  8
GRID
 10
1.14
 20
0.291
 30
0.0
 70
     8
  0
VERTEX
  8
GRID
 10
1.141
 20
0.292
 30
0.0
 70
     8
  0
VERTEX
  8
GRID
 10
1.141
 20
0.292
 30
0.0
 70
     8
  0
VERTEX
  8
GRID
 10
1.142
 20
0.292
 30
0.0
 70
     8
  0
VERTEX
  8
GRID
 10
1.143
 20
0.293
 30
0.0
 70
     8
  0
VERTEX
  8
GRID
 10
1.143
 20
0.293
 30
0.0
 70
     8
  0
VERTEX
  8
GRID
 10
1.144
 20
0.293
 30
0.0
 70
     8
  0
VERTEX
  8
GRID
 10
1.145
 20
0.294
 30
0.0
 70
     8
  0
VERTEX
  8
GRID
 10
1.145
 20
0.294
 30
0.0
 70
     8
  0
VERTEX
  8
GRID
 10
1.146
 20
0.294
 30
0.0
 70
     8
  0
VERTEX
  8
GRID
 10
1.147
 20
0.294
 30
0.0
 70
     8
  0
VERTEX
  8
GRID
 10
1.148
 20
0.294
 30
0.0
 70
     8
  0
VERTEX
  8
GRID
 10
1.148
 20
0.294
 30
0.0
 70
     8
  0
VERTEX
  8
GRID
 10
1.149
 20
0.294
 30
0.0
 70
     8
  0
VERTEX
  8
GRID
 10
1.15
 20
0.294
 30
0.0
 70
     8
  0
VERTEX
  8
GRID
 10
1.151
 20
0.294
 30
0.0
 70
     8
  0
VERTEX
  8
GRID
 10
1.151
 20
0.293
 30
0.0
 70
     8
  0
VERTEX
  8
GRID
 10
1.152
 20
0.293
 30
0.0
 70
     8
  0
VERTEX
  8
GRID
 10
1.153
 20
0.293
 30
0.0
 70
     8
  0
VERTEX
  8
GRID
 10
1.153
 20
0.292
 30
0.0
 70
     8
  0
VERTEX
  8
GRID
 10
1.154
 20
0.292
 30
0.0
 70
     8
  0
VERTEX
  8
GRID
 10
1.154
 20
0.291
 30
0.0
 70
     8
  0
VERTEX
  8
GRID
 10
1.155
 20
0.29
 30
0.0
 70
     8
  0
VERTEX
  8
GRID
 10
1.155
 20
0.289
 30
0.0
 70
     8
  0
VERTEX
  8
GRID
 10
1.155
 20
0.288
 30
0.0
 70
     8
  0
VERTEX
  8
GRID
 10
1.156
 20
0.287
 30
0.0
 70
     8
  0
VERTEX
  8
GRID
 10
1.156
 20
0.286
 30
0.0
 70
     8
  0
VERTEX
  8
GRID
 10
1.156
 20
0.285
 30
0.0
 70
     8
  0
VERTEX
  8
GRID
 10
1.156
 20
0.284
 30
0.0
 70
     8
  0
VERTEX
  8
GRID
 10
1.157
 20
0.282
 30
0.0
 70
     8
  0
VERTEX
  8
GRID
 10
1.157
 20
0.281
 30
0.0
 70
     8
  0
VERTEX
  8
GRID
 10
1.157
 20
0.279
 30
0.0
 70
     8
  0
VERTEX
  8
GRID
 10
1.157
 20
0.278
 30
0.0
 70
     8
  0
VERTEX
  8
GRID
 10
1.157
 20
0.276
 30
0.0
 70
     8
  0
VERTEX
  8
GRID
 10
1.157
 20
0.274
 30
0.0
 70
     8
  0
VERTEX
  8
GRID
 10
1.157
 20
0.273
 30
0.0
 70
     8
  0
VERTEX
  8
GRID
 10
1.157
 20
0.271
 30
0.0
 70
     8
  0
VERTEX
  8
GRID
 10
1.157
 20
0.269
 30
0.0
 70
     8
  0
VERTEX
  8
GRID
 10
1.157
 20
0.267
 30
0.0
 70
     8
  0
VERTEX
  8
GRID
 10
1.156
 20
0.265
 30
0.0
 70
     8
  0
VERTEX
  8
GRID
 10
1.156
 20
0.263
 30
0.0
 70
     8
  0
VERTEX
  8
GRID
 10
1.156
 20
0.262
 30
0.0
 70
     8
  0
VERTEX
  8
GRID
 10
1.156
 20
0.26
 30
0.0
 70
     8
  0
VERTEX
  8
GRID
 10
1.155
 20
0.258
 30
0.0
 70
     8
  0
VERTEX
  8
GRID
 10
1.155
 20
0.257
 30
0.0
 70
     8
  0
VERTEX
  8
GRID
 10
1.155
 20
0.255
 30
0.0
 70
     8
  0
VERTEX
  8
GRID
 10
1.154
 20
0.254
 30
0.0
 70
     8
  0
VERTEX
  8
GRID
 10
1.154
 20
0.252
 30
0.0
 70
     8
  0
VERTEX
  8
GRID
 10
1.154
 20
0.251
 30
0.0
 70
     8
  0
VERTEX
  8
GRID
 10
1.153
 20
0.25
 30
0.0
 70
     8
  0
VERTEX
  8
GRID
 10
1.153
 20
0.249
 30
0.0
 70
     8
  0
VERTEX
  8
GRID
 10
1.153
 20
0.248
 30
0.0
 70
     8
  0
VERTEX
  8
GRID
 10
1.152
 20
0.247
 30
0.0
 70
     8
  0
VERTEX
  8
GRID
 10
1.152
 20
0.247
 30
0.0
 70
     8
  0
VERTEX
  8
GRID
 10
1.151
 20
0.246
 30
0.0
 70
     8
  0
VERTEX
  8
GRID
 10
1.151
 20
0.245
 30
0.0
 70
     8
  0
VERTEX
  8
GRID
 10
1.15
 20
0.245
 30
0.0
 70
     8
  0
VERTEX
  8
GRID
 10
1.15
 20
0.244
 30
0.0
 70
     8
  0
VERTEX
  8
GRID
 10
1.149
 20
0.244
 30
0.0
 70
     8
  0
VERTEX
  8
GRID
 10
1.148
 20
0.243
 30
0.0
 70
     8
  0
VERTEX
  8
GRID
 10
1.147
 20
0.243
 30
0.0
 70
     8
  0
VERTEX
  8
GRID
 10
1.146
 20
0.242
 30
0.0
 70
     8
  0
VERTEX
  8
GRID
 10
1.145
 20
0.242
 30
0.0
 70
     8
  0
VERTEX
  8
GRID
 10
1.144
 20
0.241
 30
0.0
 70
     8
  0
VERTEX
  8
GRID
 10
1.143
 20
0.24
 30
0.0
 70
     8
  0
VERTEX
  8
GRID
 10
1.141
 20
0.24
 30
0.0
 70
     8
  0
VERTEX
  8
GRID
 10
1.139
 20
0.239
 30
0.0
 70
     8
  0
VERTEX
  8
GRID
 10
1.138
 20
0.238
 30
0.0
 70
     8
  0
VERTEX
  8
GRID
 10
1.136
 20
0.238
 30
0.0
 70
     8
  0
VERTEX
  8
GRID
 10
1.134
 20
0.237
 30
0.0
 70
     8
  0
VERTEX
  8
GRID
 10
1.131
 20
0.236
 30
0.0
 70
     8
  0
VERTEX
  8
GRID
 10
1.128
 20
0.235
 30
0.0
 70
     8
  0
VERTEX
  8
GRID
 10
1.125
 20
0.234
 30
0.0
 70
     8
  0
VERTEX
  8
GRID
 10
1.121
 20
0.233
 30
0.0
 70
     8
  0
VERTEX
  8
GRID
 10
1.117
 20
0.232
 30
0.0
 70
     8
  0
VERTEX
  8
GRID
 10
1.112
 20
0.231
 30
0.0
 70
     8
  0
VERTEX
  8
GRID
 10
1.102
 20
0.247
 30
0.0
 70
    16
  0
VERTEX
  8
GRID
 10
1.114
 20
0.251
 30
0.0
 70
    16
  0
VERTEX
  8
GRID
 10
1.122
 20
0.257
 30
0.0
 70
    16
  0
VERTEX
  8
GRID
 10
1.129
 20
0.265
 30
0.0
 70
    16
  0
VERTEX
  8
GRID
 10
1.135
 20
0.277
 30
0.0
 70
    16
  0
VERTEX
  8
GRID
 10
1.138
 20
0.289
 30
0.0
 70
    16
  0
VERTEX
  8
GRID
 10
1.141
 20
0.293
 30
0.0
 70
    16
  0
VERTEX
  8
GRID
 10
1.148
 20
0.295
 30
0.0
 70
    16
  0
VERTEX
  8
GRID
 10
1.154
 20
0.293
 30
0.0
 70
    16
  0
VERTEX
  8
GRID
 10
1.156
 20
0.286
 30
0.0
 70
    16
  0
VERTEX
  8
GRID
 10
1.157
 20
0.273
 30
0.0
 70
    16
  0
VERTEX
  8
GRID
 10
1.156
 20
0.258
 30
0.0
 70
    16
  0
VERTEX
  8
GRID
 10
1.153
 20
0.247
 30
0.0
 70
    16
  0
VERTEX
  8
GRID
 10
1.149
 20
0.243
 30
0.0
 70
    16
  0
VERTEX
  8
GRID
 10
1.139
 20
0.239
 30
0.0
 70
    16
  0
VERTEX
  8
GRID
 10
1.127
 20
0.235
 30
0.0
 70
    16
  0
VERTEX
  8
GRID
 10
1.112
 20
0.231
 30
0.0
 70
    16
  0
SEQEND
  8
GRID
  0
POLYLINE
  8
GRID
 66
     1
 10
0.0
 20
0.0
 30
0.0
  0
VERTEX
  8
GRID
 10
1.199
 20
0.599
 30
0.0
 42
0.097
  0
VERTEX
  8
GRID
 10
1.147
 20
0.611
 30
0.0
 42
0.072
 70
     2
 50
178.447
  0
VERTEX
  8
GRID
 10
1.085
 20
0.604
 30
0.0
 42
0.058
 50
172.717
  0
VERTEX
  8
GRID
 10
1.014
 20
0.576
 30
0.0
 42
0.058
  0
VERTEX
  8
GRID
 10
0.951
 20
0.532
 30
0.0
 42
0.052
  0
VERTEX
  8
GRID
 10
0.92
 20
0.498
 30
0.0
 42
0.106
 70
     2
 50
237.83
  0
SEQEND
  8
GRID
  0
POLYLINE
  8
GRID
 66
     1
 10
0.0
 20
0.0
 30
0.0
 70
     4
 75
     6
  0
VERTEX
  8
GRID
 10
1.185
 20
0.547
 30
0.0
 70
    16
  0
VERTEX
  8
GRID
 10
1.185
 20
0.547
 30
0.0
 70
     8
  0
VERTEX
  8
GRID
 10
1.186
 20
0.545
 30
0.0
 70
     8
  0
VERTEX
  8
GRID
 10
1.186
 20
0.544
 30
0.0
 70
     8
  0
VERTEX
  8
GRID
 10
1.186
 20
0.542
 30
0.0
 70
     8
  0
VERTEX
  8
GRID
 10
1.187
 20
0.541
 30
0.0
 70
     8
  0
VERTEX
  8
GRID
 10
1.187
 20
0.54
 30
0.0
 70
     8
  0
VERTEX
  8
GRID
 10
1.187
 20
0.54
 30
0.0
 70
     8
  0
VERTEX
  8
GRID
 10
1.188
 20
0.539
 30
0.0
 70
     8
  0
VERTEX
  8
GRID
 10
1.188
 20
0.538
 30
0.0
 70
     8
  0
VERTEX
  8
GRID
 10
1.188
 20
0.538
 30
0.0
 70
     8
  0
VERTEX
  8
GRID
 10
1.188
 20
0.538
 30
0.0
 70
     8
  0
VERTEX
  8
GRID
 10
1.189
 20
0.537
 30
0.0
 70
     8
  0
VERTEX
  8
GRID
 10
1.189
 20
0.537
 30
0.0
 70
     8
  0
VERTEX
  8
GRID
 10
1.189
 20
0.537
 30
0.0
 70
     8
  0
VERTEX
  8
GRID
 10
1.19
 20
0.536
 30
0.0
 70
     8
  0
VERTEX
  8
GRID
 10
1.19
 20
0.536
 30
0.0
 70
     8
  0
VERTEX
  8
GRID
 10
1.19
 20
0.536
 30
0.0
 70
     8
  0
VERTEX
  8
GRID
 10
1.191
 20
0.536
 30
0.0
 70
     8
  0
VERTEX
  8
GRID
 10
1.191
 20
0.536
 30
0.0
 70
     8
  0
VERTEX
  8
GRID
 10
1.192
 20
0.536
 30
0.0
 70
     8
  0
VERTEX
  8
GRID
 10
1.192
 20
0.536
 30
0.0
 70
     8
  0
VERTEX
  8
GRID
 10
1.193
 20
0.537
 30
0.0
 70
     8
  0
VERTEX
  8
GRID
 10
1.193
 20
0.537
 30
0.0
 70
     8
  0
VERTEX
  8
GRID
 10
1.194
 20
0.537
 30
0.0
 70
     8
  0
VERTEX
  8
GRID
 10
1.194
 20
0.537
 30
0.0
 70
     8
  0
VERTEX
  8
GRID
 10
1.195
 20
0.538
 30
0.0
 70
     8
  0
VERTEX
  8
GRID
 10
1.195
 20
0.538
 30
0.0
 70
     8
  0
VERTEX
  8
GRID
 10
1.196
 20
0.539
 30
0.0
 70
     8
  0
VERTEX
  8
GRID
 10
1.196
 20
0.539
 30
0.0
 70
     8
  0
VERTEX
  8
GRID
 10
1.197
 20
0.54
 30
0.0
 70
     8
  0
VERTEX
  8
GRID
 10
1.197
 20
0.541
 30
0.0
 70
     8
  0
VERTEX
  8
GRID
 10
1.197
 20
0.541
 30
0.0
 70
     8
  0
VERTEX
  8
GRID
 10
1.198
 20
0.542
 30
0.0
 70
     8
  0
VERTEX
  8
GRID
 10
1.198
 20
0.543
 30
0.0
 70
     8
  0
VERTEX
  8
GRID
 10
1.199
 20
0.544
 30
0.0
 70
     8
  0
VERTEX
  8
GRID
 10
1.199
 20
0.545
 30
0.0
 70
     8
  0
VERTEX
  8
GRID
 10
1.199
 20
0.546
 30
0.0
 70
     8
  0
VERTEX
  8
GRID
 10
1.2
 20
0.547
 30
0.0
 70
     8
  0
VERTEX
  8
GRID
 10
1.2
 20
0.548
 30
0.0
 70
     8
  0
VERTEX
  8
GRID
 10
1.2
 20
0.549
 30
0.0
 70
     8
  0
VERTEX
  8
GRID
 10
1.201
 20
0.551
 30
0.0
 70
     8
  0
VERTEX
  8
GRID
 10
1.201
 20
0.552
 30
0.0
 70
     8
  0
VERTEX
  8
GRID
 10
1.201
 20
0.553
 30
0.0
 70
     8
  0
VERTEX
  8
GRID
 10
1.201
 20
0.554
 30
0.0
 70
     8
  0
VERTEX
  8
GRID
 10
1.202
 20
0.556
 30
0.0
 70
     8
  0
VERTEX
  8
GRID
 10
1.202
 20
0.557
 30
0.0
 70
     8
  0
VERTEX
  8
GRID
 10
1.202
 20
0.558
 30
0.0
 70
     8
  0
VERTEX
  8
GRID
 10
1.202
 20
0.56
 30
0.0
 70
     8
  0
VERTEX
  8
GRID
 10
1.202
 20
0.561
 30
0.0
 70
     8
  0
VERTEX
  8
GRID
 10
1.202
 20
0.563
 30
0.0
 70
     8
  0
VERTEX
  8
GRID
 10
1.202
 20
0.564
 30
0.0
 70
     8
  0
VERTEX
  8
GRID
 10
1.202
 20
0.566
 30
0.0
 70
     8
  0
VERTEX
  8
GRID
 10
1.202
 20
0.567
 30
0.0
 70
     8
  0
VERTEX
  8
GRID
 10
1.202
 20
0.569
 30
0.0
 70
     8
  0
VERTEX
  8
GRID
 10
1.202
 20
0.571
 30
0.0
 70
     8
  0
VERTEX
  8
GRID
 10
1.202
 20
0.573
 30
0.0
 70
     8
  0
VERTEX
  8
GRID
 10
1.202
 20
0.575
 30
0.0
 70
     8
  0
VERTEX
  8
GRID
 10
1.202
 20
0.577
 30
0.0
 70
     8
  0
VERTEX
  8
GRID
 10
1.202
 20
0.579
 30
0.0
 70
     8
  0
VERTEX
  8
GRID
 10
1.201
 20
0.582
 30
0.0
 70
     8
  0
VERTEX
  8
GRID
 10
1.201
 20
0.585
 30
0.0
 70
     8
  0
VERTEX
  8
GRID
 10
1.2
 20
0.588
 30
0.0
 70
     8
  0
VERTEX
  8
GRID
 10
1.2
 20
0.591
 30
0.0
 70
     8
  0
VERTEX
  8
GRID
 10
1.199
 20
0.595
 30
0.0
 70
     8
  0
VERTEX
  8
GRID
 10
1.199
 20
0.599
 30
0.0
 70
     8
  0
VERTEX
  8
GRID
 10
1.187
 20
0.542
 30
0.0
 70
    16
  0
VERTEX
  8
GRID
 10
1.188
 20
0.538
 30
0.0
 70
    16
  0
VERTEX
  8
GRID
 10
1.19
 20
0.536
 30
0.0
 70
    16
  0
VERTEX
  8
GRID
 10
1.194
 20
0.537
 30
0.0
 70
    16
  0
VERTEX
  8
GRID
 10
1.198
 20
0.542
 30
0.0
 70
    16
  0
VERTEX
  8
GRID
 10
1.201
 20
0.55
 30
0.0
 70
    16
  0
VERTEX
  8
GRID
 10
1.203
 20
0.561
 30
0.0
 70
    16
  0
VERTEX
  8
GRID
 10
1.203
 20
0.573
 30
0.0
 70
    16
  0
VERTEX
  8
GRID
 10
1.201
 20
0.588
 30
0.0
 70
    16
  0
VERTEX
  8
GRID
 10
1.199
 20
0.599
 30
0.0
 70
    16
  0
SEQEND
  8
GRID
  0
ENDBLK
  8
0
  0
ENDSEC
  0
SECTION
  2
ENTITIES
  0
LINE
  8
0
 10
4.03
 20
6.449
 30
0.0
 11
4.03
 21
2.98
 31
0.0
  0
LINE
  8
0
 10
4.03
 20
2.98
 30
0.0
 11
23.03
 21
2.98
 31
0.0
  0
LINE
  8
0
 10
4.03
 20
6.449
 30
0.0
 11
23.03
 21
6.449
 31
0.0
  0
LINE
  8
0
 10
5.03
 20
6.449
 30
0.0
 11
5.03
 21
2.98
 31
0.0
  0
ARC
  8
0
 10
4.365
 20
6.215
 30
0.0
 40
0.125
 50
270.0
 51
90.0
  0
ARC
  8
0
 10
4.255
 20
6.215
 30
0.0
 40
0.125
 50
90.0
 51
270.0
  0
LINE
  8
0
 10
4.365
 20
6.09
 30
0.0
 11
4.255
 21
6.09
 31
0.0
  0
LINE
  8
0
 10
4.255
 20
6.34
 30
0.0
 11
4.365
 21
6.34
 31
0.0
  0
CIRCLE
  8
0
 10
4.7
 20
5.902
 30
0.0
 40
0.1
  0
ARC
  8
0
 10
4.255
 20
3.215
 30
0.0
 40
0.125
 50
90.0
 51
270.0
  0
ARC
  8
0
 10
4.365
 20
3.215
 30
0.0
 40
0.125
 50
270.0
 51
90.0
  0
LINE
  8
0
 10
4.365
 20
3.34
 30
0.0
 11
4.255
 21
3.34
 31
0.0
  0
LINE
  8
0
 10
4.255
 20
3.09
 30
0.0
 11
4.365
 21
3.09
 31
0.0
  0
CIRCLE
  8
0
 10
4.7
 20
3.527
 30
0.0
 40
0.1
  0
LINE
  8
0
 10
22.03
 20
6.449
 30
0.0
 11
22.03
 21
2.98
 31
0.0
  0
LINE
  8
0
 10
23.03
 20
6.449
 30
0.0
 11
23.03
 21
2.98
 31
0.0
  0
ARC
  8
0
 10
22.695
 20
3.215
 30
0.0
 40
0.125
 50
90.0
 51
270.0
  0
ARC
  8
0
 10
22.805
 20
3.215
 30
0.0
 40
0.125
 50
270.0
 51
90.0
  0
LINE
  8
0
 10
22.805
 20
3.09
 30
0.0
 11
22.695
 21
3.09
 31
0.0
  0
LINE
  8
0
 10
22.695
 20
3.34
 30
0.0
 11
22.805
 21
3.34
 31
0.0
  0
CIRCLE
  8
0
 10
22.36
 20
3.527
 30
0.0
 40
0.1
  0
CIRCLE
  8
0
 10
22.36
 20
5.902
 30
0.0
 40
0.1
  0
ARC
  8
0
 10
22.695
 20
6.215
 30
0.0
 40
0.125
 50
90.0
 51
270.0
  0
ARC
  8
0
 10
22.805
 20
6.215
 30
0.0
 40
0.125
 50
270.0
 51
90.0
  0
LINE
  8
0
 10
22.695
 20
6.09
 30
0.0
 11
22.805
 21
6.09
 31
0.0
  0
LINE
  8
0
 10
22.805
 20
6.34
 30
0.0
 11
22.695
 21
6.34
 31
0.0
  0
LINE
  8
0
 10
4.03
 20
8.449
 30
0.0
 11
23.03
 21
8.449
 31
0.0
  0
LINE
  8
0
 10
4.03
 20
11.918
 30
0.0
 11
5.029
 21
11.918
 31
0.0
  0
LINE
  8
0
 10
4.03
 20
11.918
 30
0.0
 11
4.03
 21
8.449
 31
0.0
  0
ARC
  8
0
 10
4.365
 20
8.684
 30
0.0
 40
0.125
 50
270.0
 51
90.0
  0
ARC
  8
0
 10
4.255
 20
8.684
 30
0.0
 40
0.125
 50
90.0
 51
270.0
  0
LINE
  8
0
 10
4.255
 20
8.559
 30
0.0
 11
4.365
 21
8.559
 31
0.0
  0
LINE
  8
0
 10
4.365
 20
8.809
 30
0.0
 11
4.255
 21
8.809
 31
0.0
  0
CIRCLE
  8
0
 10
4.7
 20
8.996
 30
0.0
 40
0.1
  0
CIRCLE
  8
0
 10
4.7
 20
11.371
 30
0.0
 40
0.1
  0
ARC
  8
0
 10
4.365
 20
11.684
 30
0.0
 40
0.125
 50
270.0
 51
90.0
  0
ARC
  8
0
 10
4.255
 20
11.684
 30
0.0
 40
0.125
 50
90.0
 51
270.0
  0
LINE
  8
0
 10
4.365
 20
11.559
 30
0.0
 11
4.255
 21
11.559
 31
0.0
  0
LINE
  8
0
 10
4.255
 20
11.809
 30
0.0
 11
4.365
 21
11.809
 31
0.0
  0
LINE
  8
0
 10
23.03
 20
11.918
 30
0.0
 11
23.03
 21
8.449
 31
0.0
  0
CIRCLE
  8
0
 10
22.36
 20
8.996
 30
0.0
 40
0.1
  0
ARC
  8
0
 10
22.805
 20
8.684
 30
0.0
 40
0.125
 50
270.0
 51
90.0
  0
ARC
  8
0
 10
22.695
 20
8.684
 30
0.0
 40
0.125
 50
90.0
 51
270.0
  0
LINE
  8
0
 10
22.805
 20
8.559
 30
0.0
 11
22.695
 21
8.559
 31
0.0
  0
LINE
  8
0
 10
22.695
 20
8.809
 30
0.0
 11
22.805
 21
8.809
 31
0.0
  0
CIRCLE
  8
0
 10
22.36
 20
11.371
 30
0.0
 40
0.1
  0
ARC
  8
0
 10
22.805
 20
11.684
 30
0.0
 40
0.125
 50
270.0
 51
90.0
  0
ARC
  8
0
 10
22.695
 20
11.684
 30
0.0
 40
0.125
 50
90.0
 51
270.0
  0
LINE
  8
0
 10
22.695
 20
11.559
 30
0.0
 11
22.805
 21
11.559
 31
0.0
  0
LINE
  8
0
 10
22.805
 20
11.809
 30
0.0
 11
22.695
 21
11.809
 31
0.0
  0
INSERT
  8
0
  2
LOGO01
 10
7.6827
 20
4.6171
 30
0.0
 41
0.9986
 42
0.9986
 43
0.9986
  0
LINE
  8
0
 10
4.905
 20
11.918
 30
0.0
 11
4.905
 21
8.449
 31
0.0
  0
LINE
  8
0
 10
4.967
 20
11.918
 30
0.0
 11
4.967
 21
8.449
 31
0.0
  0
LINE
  8
0
 10
5.029
 20
11.918
 30
0.0
 11
22.03
 21
11.918
 31
0.0
  0
LINE
  8
0
 10
22.093
 20
11.918
 30
0.0
 11
22.093
 21
8.449
 31
0.0
  0
LINE
  8
0
 10
22.155
 20
11.918
 30
0.0
 11
22.155
 21
8.449
 31
0.0
  0
LINE
  8
0
 10
22.03
 20
11.918
 30
0.0
 11
23.03
 21
11.918
 31
0.0
  0
ARC
  8
0
 10
21.4953
 20
10.384
 30
0.0
 40
0.124
 50
81.063
 51
90.0
  0
ARC
  8
0
 10
21.4953
 20
10.384
 30
0.0
 40
0.124
 50
90.0
 51
98.937
  0
ARC
  8
0
 10
21.4953
 20
10.384
 30
0.0
 40
0.124
 50
180.0
 51
188.937
  0
ARC
  8
0
 10
21.4953
 20
10.384
 30
0.0
 40
0.124
 50
270.0
 51
278.937
  0
ARC
  8
0
 10
21.4953
 20
10.384
 30
0.0
 40
0.124
 50
261.063
 51
270.0
  0
ARC
  8
0
 10
21.4953
 20
10.384
 30
0.0
 40
0.124
 50
351.063
 51
0.0
  0
ARC
  8
0
 10
21.3713
 20
10.508
 30
0.0
 40
0.105
 50
270.823
 51
359.177
  0
ARC
  8
0
 10
21.6193
 20
10.508
 30
0.0
 40
0.105
 50
180.823
 51
269.177
  0
ARC
  8
0
 10
21.6193
 20
10.261
 30
0.0
 40
0.105
 50
90.823
 51
179.177
  0
ARC
  8
0
 10
21.4953
 20
10.384
 30
0.0
 40
0.124
 50
0.0
 51
8.937
  0
ARC
  8
0
 10
21.3713
 20
10.261
 30
0.0
 40
0.105
 50
0.823
 51
89.177
  0
ARC
  8
0
 10
21.4953
 20
10.384
 30
0.0
 40
0.124
 50
171.063
 51
180.0
  0
CIRCLE
  8
0
 10
21.4953
 20
10.384
 30
0.0
 40
0.15
  0
ARC
  8
0
 10
21.3713
 20
8.701
 30
0.0
 40
0.105
 50
0.823
 51
89.177
  0
ARC
  8
0
 10
21.3713
 20
8.948
 30
0.0
 40
0.105
 50
270.823
 51
359.177
  0
CIRCLE
  8
0
 10
21.4953
 20
8.824
 30
0.0
 40
0.15
  0
ARC
  8
0
 10
21.4953
 20
8.824
 30
0.0
 40
0.124
 50
171.063
 51
180.0
  0
ARC
  8
0
 10
21.4953
 20
8.824
 30
0.0
 40
0.124
 50
180.0
 51
188.937
  0
ARC
  8
0
 10
21.4953
 20
8.824
 30
0.0
 40
0.124
 50
0.0
 51
8.937
  0
ARC
  8
0
 10
21.6193
 20
8.701
 30
0.0
 40
0.105
 50
90.823
 51
179.177
  0
ARC
  8
0
 10
21.6193
 20
8.948
 30
0.0
 40
0.105
 50
180.823
 51
269.177
  0
ARC
  8
0
 10
21.4953
 20
8.824
 30
0.0
 40
0.124
 50
351.063
 51
0.0
  0
ARC
  8
0
 10
21.4953
 20
8.824
 30
0.0
 40
0.124
 50
261.063
 51
270.0
  0
ARC
  8
0
 10
21.4953
 20
8.824
 30
0.0
 40
0.124
 50
270.0
 51
278.937
  0
ARC
  8
0
 10
21.4953
 20
8.824
 30
0.0
 40
0.124
 50
90.0
 51
98.937
  0
ARC
  8
0
 10
21.4953
 20
8.824
 30
0.0
 40
0.124
 50
81.063
 51
90.0
  0
CIRCLE
  8
0
 10
16.533
 20
10.069
 30
0.0
 40
0.15
  0
ARC
  8
0
 10
16.409
 20
10.193
 30
0.0
 40
0.105
 50
270.823
 51
359.177
  0
ARC
  8
0
 10
16.409
 20
9.946
 30
0.0
 40
0.105
 50
0.823
 51
89.177
  0
ARC
  8
0
 10
16.533
 20
10.069
 30
0.0
 40
0.124
 50
180.0
 51
188.937
  0
ARC
  8
0
 10
16.533
 20
10.069
 30
0.0
 40
0.124
 50
171.063
 51
180.0
  0
ARC
  8
0
 10
16.533
 20
10.069
 30
0.0
 40
0.124
 50
81.063
 51
90.0
  0
ARC
  8
0
 10
16.533
 20
10.069
 30
0.0
 40
0.124
 50
90.0
 51
98.937
  0
ARC
  8
0
 10
16.533
 20
10.069
 30
0.0
 40
0.124
 50
270.0
 51
278.937
  0
ARC
  8
0
 10
16.533
 20
10.069
 30
0.0
 40
0.124
 50
261.063
 51
270.0
  0
ARC
  8
0
 10
16.533
 20
10.069
 30
0.0
 40
0.124
 50
351.063
 51
0.0
  0
ARC
  8
0
 10
16.657
 20
10.193
 30
0.0
 40
0.105
 50
180.823
 51
269.177
  0
ARC
  8
0
 10
16.657
 20
9.946
 30
0.0
 40
0.105
 50
90.823
 51
179.177
  0
ARC
  8
0
 10
16.533
 20
10.069
 30
0.0
 40
0.124
 50
0.0
 51
8.937
  0
LINE
  8
0
 10
17.4697
 20
8.7633
 30
0.0
 11
19.3497
 21
8.7633
 31
0.0
  0
LINE
  8
0
 10
19.4097
 20
9.9533
 30
0.0
 11
19.4097
 21
8.8233
 31
0.0
  0
LINE
  8
0
 10
17.4697
 20
10.0133
 30
0.0
 11
19.3497
 21
10.0133
 31
0.0
  0
ARC
  8
0
 10
19.3497
 20
9.9533
 30
0.0
 40
0.06
 50
0.0
 51
90.0
  0
ARC
  8
0
 10
19.3497
 20
8.8233
 30
0.0
 40
0.06
 50
270.0
 51
0.0
  0
ARC
  8
0
 10
17.4697
 20
9.9533
 30
0.0
 40
0.06
 50
90.0
 51
180.0
  0
LINE
  8
0
 10
17.4097
 20
9.9533
 30
0.0
 11
17.4097
 21
8.8233
 31
0.0
  0
ARC
  8
0
 10
17.4697
 20
8.8233
 30
0.0
 40
0.06
 50
180.0
 51
270.0
  0
INSERT
  8
0
  2
LOGO01
 10
17.5187
 20
9.5813
 30
0.0
 41
0.53
 42
0.53
 43
0.53
  0
TEXT
  8
0
 10
18.2877
 20
9.8903
 30
0.0
 40
0.063
  1
QSC
  7
ROMANS
  0
TEXT
  8
0
 10
18.5147
 20
9.8903
 30
0.0
 40
0.063
  1
AUDIO 
  7
ROMANS
  0
TEXT
  8
0
 10
18.8297
 20
9.8903
 30
0.0
 40
0.063
  1
PRODUCTS
  7
ROMANS
  0
TEXT
  8
0
 10
18.2887
 20
9.7923
 30
0.0
 40
0.063
  1
COSTA
  7
ROMANS
  0
TEXT
  8
0
 10
18.6237
 20
9.7913
 30
0.0
 40
0.063
  1
MESA,
  7
ROMANS
  0
TEXT
  8
0
 10
18.9387
 20
9.7913
 30
0.0
 40
0.063
  1
CA
  7
ROMANS
  0
TEXT
  8
0
 10
19.1087
 20
9.7913
 30
0.0
 40
0.063
  1
USA
  7
ROMANS
  0
LINE
  8
0
 10
18.5347
 20
9.0383
 30
0.0
 11
18.5347
 21
8.8383
 31
0.0
  0
LINE
  8
0
 10
18.5647
 20
9.0383
 30
0.0
 11
18.5647
 21
8.8383
 31
0.0
  0
LINE
  8
0
 10
18.5947
 20
9.0383
 30
0.0
 11
18.5947
 21
8.8383
 31
0.0
  0
LINE
  8
0
 10
18.6247
 20
9.0383
 30
0.0
 11
18.6247
 21
8.8383
 31
0.0
  0
LINE
  8
0
 10
18.6547
 20
9.0383
 30
0.0
 11
18.6547
 21
8.8383
 31
0.0
  0
LINE
  8
0
 10
18.6847
 20
9.0383
 30
0.0
 11
18.6847
 21
8.8383
 31
0.0
  0
LINE
  8
0
 10
18.7147
 20
9.0383
 30
0.0
 11
18.7147
 21
8.8383
 31
0.0
  0
LINE
  8
0
 10
18.7447
 20
9.0383
 30
0.0
 11
18.7447
 21
8.8383
 31
0.0
  0
LINE
  8
0
 10
18.7747
 20
9.0383
 30
0.0
 11
18.7747
 21
8.8383
 31
0.0
  0
LINE
  8
0
 10
18.8047
 20
9.0383
 30
0.0
 11
18.8047
 21
8.8383
 31
0.0
  0
LINE
  8
0
 10
18.8347
 20
9.0383
 30
0.0
 11
18.8347
 21
8.8383
 31
0.0
  0
LINE
  8
0
 10
18.8647
 20
9.0383
 30
0.0
 11
18.8647
 21
8.8383
 31
0.0
  0
LINE
  8
0
 10
18.8947
 20
9.0383
 30
0.0
 11
18.8947
 21
8.8383
 31
0.0
  0
LINE
  8
0
 10
18.9247
 20
9.0383
 30
0.0
 11
18.9247
 21
8.8383
 31
0.0
  0
LINE
  8
0
 10
18.9547
 20
9.0383
 30
0.0
 11
18.9547
 21
8.8383
 31
0.0
  0
LINE
  8
0
 10
18.9847
 20
9.0383
 30
0.0
 11
18.9847
 21
8.8383
 31
0.0
  0
LINE
  8
0
 10
19.0147
 20
9.0383
 30
0.0
 11
19.0147
 21
8.8383
 31
0.0
  0
LINE
  8
0
 10
19.0447
 20
9.0383
 30
0.0
 11
19.0447
 21
8.8383
 31
0.0
  0
LINE
  8
0
 10
19.0747
 20
9.0383
 30
0.0
 11
19.0747
 21
8.8383
 31
0.0
  0
LINE
  8
0
 10
19.1047
 20
9.0383
 30
0.0
 11
19.1047
 21
8.8383
 31
0.0
  0
LINE
  8
0
 10
19.1347
 20
9.0383
 30
0.0
 11
19.1347
 21
8.8383
 31
0.0
  0
LINE
  8
0
 10
19.1647
 20
9.0383
 30
0.0
 11
19.1647
 21
8.8383
 31
0.0
  0
LINE
  8
0
 10
19.1947
 20
9.0383
 30
0.0
 11
19.1947
 21
8.8383
 31
0.0
  0
LINE
  8
0
 10
19.2247
 20
9.0383
 30
0.0
 11
19.2247
 21
8.8383
 31
0.0
  0
LINE
  8
0
 10
19.2547
 20
9.0383
 30
0.0
 11
19.2547
 21
8.8383
 31
0.0
  0
LINE
  8
0
 10
17.8747
 20
9.0383
 30
0.0
 11
17.8747
 21
8.8383
 31
0.0
  0
LINE
  8
0
 10
17.8447
 20
9.0383
 30
0.0
 11
17.8447
 21
8.8383
 31
0.0
  0
LINE
  8
0
 10
17.8147
 20
9.0383
 30
0.0
 11
17.8147
 21
8.8383
 31
0.0
  0
LINE
  8
0
 10
18.2047
 20
9.0383
 30
0.0
 11
18.2047
 21
8.8383
 31
0.0
  0
LINE
  8
0
 10
18.1747
 20
9.0383
 30
0.0
 11
18.1747
 21
8.8383
 31
0.0
  0
LINE
  8
0
 10
18.1447
 20
9.0383
 30
0.0
 11
18.1447
 21
8.8383
 31
0.0
  0
LINE
  8
0
 10
18.1147
 20
9.0383
 30
0.0
 11
18.1147
 21
8.8383
 31
0.0
  0
LINE
  8
0
 10
18.0847
 20
9.0383
 30
0.0
 11
18.0847
 21
8.8383
 31
0.0
  0
LINE
  8
0
 10
18.0547
 20
9.0383
 30
0.0
 11
18.0547
 21
8.8383
 31
0.0
  0
LINE
  8
0
 10
18.0247
 20
9.0383
 30
0.0
 11
18.0247
 21
8.8383
 31
0.0
  0
LINE
  8
0
 10
17.9947
 20
9.0383
 30
0.0
 11
17.9947
 21
8.8383
 31
0.0
  0
LINE
  8
0
 10
17.9647
 20
9.0383
 30
0.0
 11
17.9647
 21
8.8383
 31
0.0
  0
LINE
  8
0
 10
17.9347
 20
9.0383
 30
0.0
 11
17.9347
 21
8.8383
 31
0.0
  0
LINE
  8
0
 10
17.9047
 20
9.0383
 30
0.0
 11
17.9047
 21
8.8383
 31
0.0
  0
LINE
  8
0
 10
18.5047
 20
9.0383
 30
0.0
 11
18.5047
 21
8.8383
 31
0.0
  0
LINE
  8
0
 10
18.4747
 20
9.0383
 30
0.0
 11
18.4747
 21
8.8383
 31
0.0
  0
LINE
  8
0
 10
18.4447
 20
9.0383
 30
0.0
 11
18.4447
 21
8.8383
 31
0.0
  0
LINE
  8
0
 10
18.4147
 20
9.0383
 30
0.0
 11
18.4147
 21
8.8383
 31
0.0
  0
LINE
  8
0
 10
18.3847
 20
9.0383
 30
0.0
 11
18.3847
 21
8.8383
 31
0.0
  0
LINE
  8
0
 10
18.3547
 20
9.0383
 30
0.0
 11
18.3547
 21
8.8383
 31
0.0
  0
LINE
  8
0
 10
18.3247
 20
9.0383
 30
0.0
 11
18.3247
 21
8.8383
 31
0.0
  0
LINE
  8
0
 10
18.2947
 20
9.0383
 30
0.0
 11
18.2947
 21
8.8383
 31
0.0
  0
LINE
  8
0
 10
18.2647
 20
9.0383
 30
0.0
 11
18.2647
 21
8.8383
 31
0.0
  0
LINE
  8
0
 10
18.2347
 20
9.0383
 30
0.0
 11
18.2347
 21
8.8383
 31
0.0
  0
TEXT
  8
0
 10
18.2907
 20
9.7083
 30
0.0
 40
0.062
  1
MADE IN USA
  7
ROMANS
  0
TEXT
  8
0
 10
17.4527
 20
9.4333
 30
0.0
 40
0.07
  1
MODEL:
  7
ROMANS
  0
TEXT
  8
0
 10
17.4567
 20
9.0693
 30
0.0
 40
0.07
  1
SERIAL: 000000000
  7
ROMANS
  0
POLYLINE
  8
0
 66
     1
 10
0.0
 20
0.0
 30
0.0
 70
     4
 40
0.003
 41
0.003
 75
     6
  0
VERTEX
  8
0
 10
17.7577
 20
9.2133
 30
0.0
 70
    16
  0
VERTEX
  8
0
 10
17.7577
 20
9.2133
 30
0.0
 70
     8
  0
VERTEX
  8
0
 10
17.7627
 20
9.2183
 30
0.0
 70
     8
  0
VERTEX
  8
0
 10
17.7667
 20
9.2233
 30
0.0
 70
     8
  0
VERTEX
  8
0
 10
17.7707
 20
9.2273
 30
0.0
 70
     8
  0
VERTEX
  8
0
 10
17.7747
 20
9.2303
 30
0.0
 70
     8
  0
VERTEX
  8
0
 10
17.7777
 20
9.2323
 30
0.0
 70
     8
  0
VERTEX
  8
0
 10
17.7807
 20
9.2343
 30
0.0
 70
     8
  0
VERTEX
  8
0
 10
17.7827
 20
9.2363
 30
0.0
 70
     8
  0
VERTEX
  8
0
 10
17.7857
 20
9.2373
 30
0.0
 70
     8
  0
VERTEX
  8
0
 10
17.7877
 20
9.2383
 30
0.0
 70
     8
  0
VERTEX
  8
0
 10
17.7907
 20
9.2393
 30
0.0
 70
     8
  0
VERTEX
  8
0
 10
17.7927
 20
9.2393
 30
0.0
 70
     8
  0
VERTEX
  8
0
 10
17.7957
 20
9.2403
 30
0.0
 70
     8
  0
VERTEX
  8
0
 10
17.7977
 20
9.2403
 30
0.0
 70
     8
  0
VERTEX
  8
0
 10
17.7997
 20
9.2403
 30
0.0
 70
     8
  0
VERTEX
  8
0
 10
17.8027
 20
9.2393
 30
0.0
 70
     8
  0
VERTEX
  8
0
 10
17.8047
 20
9.2393
 30
0.0
 70
     8
  0
VERTEX
  8
0
 10
17.8067
 20
9.2383
 30
0.0
 70
     8
  0
VERTEX
  8
0
 10
17.8087
 20
9.2373
 30
0.0
 70
     8
  0
VERTEX
  8
0
 10
17.8107
 20
9.2373
 30
0.0
 70
     8
  0
VERTEX
  8
0
 10
17.8127
 20
9.2353
 30
0.0
 70
     8
  0
VERTEX
  8
0
 10
17.8147
 20
9.2343
 30
0.0
 70
     8
  0
VERTEX
  8
0
 10
17.8157
 20
9.2333
 30
0.0
 70
     8
  0
VERTEX
  8
0
 10
17.8177
 20
9.2323
 30
0.0
 70
     8
  0
VERTEX
  8
0
 10
17.8187
 20
9.2313
 30
0.0
 70
     8
  0
VERTEX
  8
0
 10
17.8207
 20
9.2293
 30
0.0
 70
     8
  0
VERTEX
  8
0
 10
17.8217
 20
9.2283
 30
0.0
 70
     8
  0
VERTEX
  8
0
 10
17.8237
 20
9.2273
 30
0.0
 70
     8
  0
VERTEX
  8
0
 10
17.8247
 20
9.2263
 30
0.0
 70
     8
  0
VERTEX
  8
0
 10
17.8267
 20
9.2243
 30
0.0
 70
     8
  0
VERTEX
  8
0
 10
17.8277
 20
9.2233
 30
0.0
 70
     8
  0
VERTEX
  8
0
 10
17.8287
 20
9.2223
 30
0.0
 70
     8
  0
VERTEX
  8
0
 10
17.8307
 20
9.2213
 30
0.0
 70
     8
  0
VERTEX
  8
0
 10
17.8317
 20
9.2203
 30
0.0
 70
     8
  0
VERTEX
  8
0
 10
17.8327
 20
9.2193
 30
0.0
 70
     8
  0
VERTEX
  8
0
 10
17.8347
 20
9.2193
 30
0.0
 70
     8
  0
VERTEX
  8
0
 10
17.8357
 20
9.2183
 30
0.0
 70
     8
  0
VERTEX
  8
0
 10
17.8377
 20
9.2173
 30
0.0
 70
     8
  0
VERTEX
  8
0
 10
17.8397
 20
9.2173
 30
0.0
 70
     8
  0
VERTEX
  8
0
 10
17.8417
 20
9.2163
 30
0.0
 70
     8
  0
VERTEX
  8
0
 10
17.8437
 20
9.2163
 30
0.0
 70
     8
  0
VERTEX
  8
0
 10
17.8457
 20
9.2163
 30
0.0
 70
     8
  0
VERTEX
  8
0
 10
17.8477
 20
9.2153
 30
0.0
 70
     8
  0
VERTEX
  8
0
 10
17.8507
 20
9.2153
 30
0.0
 70
     8
  0
VERTEX
  8
0
 10
17.8527
 20
9.2153
 30
0.0
 70
     8
  0
VERTEX
  8
0
 10
17.8557
 20
9.2153
 30
0.0
 70
     8
  0
VERTEX
  8
0
 10
17.8577
 20
9.2153
 30
0.0
 70
     8
  0
VERTEX
  8
0
 10
17.8597
 20
9.2153
 30
0.0
 70
     8
  0
VERTEX
  8
0
 10
17.8627
 20
9.2163
 30
0.0
 70
     8
  0
VERTEX
  8
0
 10
17.8647
 20
9.2163
 30
0.0
 70
     8
  0
VERTEX
  8
0
 10
17.8667
 20
9.2173
 30
0.0
 70
     8
  0
VERTEX
  8
0
 10
17.8687
 20
9.2183
 30
0.0
 70
     8
  0
VERTEX
  8
0
 10
17.8697
 20
9.2193
 30
0.0
 70
     8
  0
VERTEX
  8
0
 10
17.8717
 20
9.2203
 30
0.0
 70
     8
  0
VERTEX
  8
0
 10
17.8737
 20
9.2223
 30
0.0
 70
     8
  0
VERTEX
  8
0
 10
17.8747
 20
9.2233
 30
0.0
 70
     8
  0
VERTEX
  8
0
 10
17.8767
 20
9.2253
 30
0.0
 70
     8
  0
VERTEX
  8
0
 10
17.8787
 20
9.2263
 30
0.0
 70
     8
  0
VERTEX
  8
0
 10
17.8807
 20
9.2283
 30
0.0
 70
     8
  0
VERTEX
  8
0
 10
17.8817
 20
9.2303
 30
0.0
 70
     8
  0
VERTEX
  8
0
 10
17.8837
 20
9.2323
 30
0.0
 70
     8
  0
VERTEX
  8
0
 10
17.8847
 20
9.2343
 30
0.0
 70
     8
  0
VERTEX
  8
0
 10
17.8857
 20
9.2363
 30
0.0
 70
     8
  0
VERTEX
  8
0
 10
17.8867
 20
9.2393
 30
0.0
 70
     8
  0
VERTEX
  8
0
 10
17.8867
 20
9.2413
 30
0.0
 70
     8
  0
VERTEX
  8
0
 10
17.7717
 20
9.2293
 30
0.0
 70
    16
  0
VERTEX
  8
0
 10
17.7857
 20
9.2403
 30
0.0
 70
    16
  0
VERTEX
  8
0
 10
17.8057
 20
9.2413
 30
0.0
 70
    16
  0
VERTEX
  8
0
 10
17.8197
 20
9.2313
 30
0.0
 70
    16
  0
VERTEX
  8
0
 10
17.8297
 20
9.2203
 30
0.0
 70
    16
  0
VERTEX
  8
0
 10
17.8417
 20
9.2153
 30
0.0
 70
    16
  0
VERTEX
  8
0
 10
17.8637
 20
9.2143
 30
0.0
 70
    16
  0
VERTEX
  8
0
 10
17.8767
 20
9.2233
 30
0.0
 70
    16
  0
VERTEX
  8
0
 10
17.8867
 20
9.2353
 30
0.0
 70
    16
  0
VERTEX
  8
0
 10
17.8867
 20
9.2413
 30
0.0
 70
    16
  0
SEQEND
  8
0
  0
CIRCLE
  8
0
 10
6.267
 20
9.449
 30
0.0
 40
0.1
  0
CIRCLE
  8
0
 10
6.267
 20
9.449
 30
0.0
 40
0.055
  0
CIRCLE
  8
0
 10
7.237
 20
9.449
 30
0.0
 40
0.055
  0
CIRCLE
  8
0
 10
7.237
 20
9.449
 30
0.0
 40
0.1
  0
LINE
  8
0
 10
6.491
 20
9.599
 30
0.0
 11
7.014
 21
9.599
 31
0.0
  0
LINE
  8
0
 10
6.523
 20
9.299
 30
0.0
 11
6.982
 21
9.299
 31
0.0
  0
LINE
  8
0
 10
6.442
 20
9.541
 30
0.0
 11
6.474
 21
9.341
 31
0.0
  0
LINE
  8
0
 10
7.063
 20
9.541
 30
0.0
 11
7.031
 21
9.341
 31
0.0
  0
ARC
  8
0
 10
6.491
 20
9.549
 30
0.0
 40
0.05
 50
90.0
 51
189.105
  0
ARC
  8
0
 10
7.014
 20
9.549
 30
0.0
 40
0.05
 50
350.895
 51
90.0
  0
ARC
  8
0
 10
6.982
 20
9.349
 30
0.0
 40
0.05
 50
270.0
 51
350.895
  0
ARC
  8
0
 10
6.523
 20
9.349
 30
0.0
 40
0.05
 50
189.105
 51
270.0
  0
CIRCLE
  8
0
 10
6.621
 20
9.449
 30
0.0
 40
0.02
  0
CIRCLE
  8
0
 10
6.709
 20
9.449
 30
0.0
 40
0.02
  0
CIRCLE
  8
0
 10
6.796
 20
9.449
 30
0.0
 40
0.02
  0
CIRCLE
  8
0
 10
6.884
 20
9.449
 30
0.0
 40
0.02
  0
CIRCLE
  8
0
 10
6.971
 20
9.449
 30
0.0
 40
0.02
  0
CIRCLE
  8
0
 10
6.665
 20
9.524
 30
0.0
 40
0.02
  0
CIRCLE
  8
0
 10
6.577
 20
9.524
 30
0.0
 40
0.02
  0
CIRCLE
  8
0
 10
6.752
 20
9.524
 30
0.0
 40
0.02
  0
CIRCLE
  8
0
 10
6.84
 20
9.524
 30
0.0
 40
0.02
  0
CIRCLE
  8
0
 10
6.927
 20
9.524
 30
0.0
 40
0.02
  0
CIRCLE
  8
0
 10
6.665
 20
9.374
 30
0.0
 40
0.02
  0
CIRCLE
  8
0
 10
6.577
 20
9.374
 30
0.0
 40
0.02
  0
CIRCLE
  8
0
 10
6.752
 20
9.374
 30
0.0
 40
0.02
  0
CIRCLE
  8
0
 10
6.84
 20
9.374
 30
0.0
 40
0.02
  0
CIRCLE
  8
0
 10
6.927
 20
9.374
 30
0.0
 40
0.02
  0
CIRCLE
  8
0
 10
10.1132
 20
8.814
 30
0.0
 40
0.125
  0
ARC
  8
0
 10
10.1132
 20
8.814
 30
0.0
 40
0.103
 50
90.0
 51
98.937
  0
ARC
  8
0
 10
10.0102
 20
8.918
 30
0.0
 40
0.087
 50
270.823
 51
359.177
  0
ARC
  8
0
 10
10.1132
 20
8.814
 30
0.0
 40
0.103
 50
171.063
 51
180.0
  0
ARC
  8
0
 10
10.1132
 20
8.814
 30
0.0
 40
0.103
 50
261.063
 51
270.0
  0
ARC
  8
0
 10
10.0102
 20
8.711
 30
0.0
 40
0.087
 50
0.823
 51
89.177
  0
ARC
  8
0
 10
10.1132
 20
8.814
 30
0.0
 40
0.103
 50
180.0
 51
188.937
  0
ARC
  8
0
 10
10.1132
 20
8.814
 30
0.0
 40
0.103
 50
351.063
 51
0.0
  0
ARC
  8
0
 10
10.2162
 20
8.711
 30
0.0
 40
0.087
 50
90.823
 51
179.177
  0
ARC
  8
0
 10
10.1132
 20
8.814
 30
0.0
 40
0.103
 50
270.0
 51
278.937
  0
ARC
  8
0
 10
10.1132
 20
8.814
 30
0.0
 40
0.103
 50
81.063
 51
90.0
  0
ARC
  8
0
 10
10.2162
 20
8.918
 30
0.0
 40
0.087
 50
180.823
 51
269.177
  0
ARC
  8
0
 10
10.1132
 20
8.814
 30
0.0
 40
0.103
 50
0.0
 51
8.937
  0
LINE
  8
0
 10
9.8332
 20
9.357
 30
0.0
 11
10.3932
 21
9.357
 31
0.0
  0
LINE
  8
0
 10
9.8332
 20
9.397
 30
0.0
 11
10.3932
 21
9.397
 31
0.0
  0
ARC
  8
0
 10
9.8332
 20
9.377
 30
0.0
 40
0.02
 50
90.0
 51
270.0
  0
ARC
  8
0
 10
10.3932
 20
9.377
 30
0.0
 40
0.02
 50
270.0
 51
90.0
  0
ARC
  8
0
 10
9.8332
 20
9.752
 30
0.0
 40
0.02
 50
90.0
 51
270.0
  0
LINE
  8
0
 10
9.8332
 20
9.772
 30
0.0
 11
10.3932
 21
9.772
 31
0.0
  0
LINE
  8
0
 10
9.8332
 20
9.732
 30
0.0
 11
10.3932
 21
9.732
 31
0.0
  0
ARC
  8
0
 10
10.3932
 20
9.752
 30
0.0
 40
0.02
 50
270.0
 51
90.0
  0
ARC
  8
0
 10
9.8332
 20
9.002
 30
0.0
 40
0.02
 50
90.0
 51
270.0
  0
LINE
  8
0
 10
9.8332
 20
9.022
 30
0.0
 11
10.3932
 21
9.022
 31
0.0
  0
LINE
  8
0
 10
9.8332
 20
8.982
 30
0.0
 11
10.3932
 21
8.982
 31
0.0
  0
ARC
  8
0
 10
10.3932
 20
9.002
 30
0.0
 40
0.02
 50
270.0
 51
90.0
  0
LINE
  8
0
 10
9.8632
 20
8.982
 30
0.0
 11
9.8632
 21
8.6422
 31
0.0
  0
LINE
  8
0
 10
9.8632
 20
9.357
 30
0.0
 11
9.8632
 21
9.022
 31
0.0
  0
LINE
  8
0
 10
9.8632
 20
9.732
 30
0.0
 11
9.8632
 21
9.397
 31
0.0
  0
LINE
  8
0
 10
10.3632
 20
9.732
 30
0.0
 11
10.3632
 21
9.397
 31
0.0
  0
LINE
  8
0
 10
10.3632
 20
9.357
 30
0.0
 11
10.3632
 21
9.022
 31
0.0
  0
LINE
  8
0
 10
10.3632
 20
8.982
 30
0.0
 11
10.3632
 21
8.6422
 31
0.0
  0
POLYLINE
  8
0
 66
     1
 10
0.0
 20
0.0
 30
0.0
 70
     1
  0
VERTEX
  8
0
 10
9.9732
 20
9.424
 30
0.0
  0
VERTEX
  8
0
 10
10.2532
 20
9.424
 30
0.0
  0
VERTEX
  8
0
 10
10.2532
 20
9.704
 30
0.0
  0
VERTEX
  8
0
 10
9.9732
 20
9.704
 30
0.0
  0
SEQEND
  8
0
  0
ARC
  8
0
 10
10.2462
 20
9.625
 30
0.0
 40
0.087
 50
180.722
 51
248.835
  0
ARC
  8
0
 10
10.1742
 20
9.432
 30
0.0
 40
0.087
 50
70.482
 51
138.596
  0
ARC
  8
0
 10
9.9802
 20
9.504
 30
0.0
 40
0.087
 50
0.722
 51
68.835
  0
ARC
  8
0
 10
10.0522
 20
9.697
 30
0.0
 40
0.087
 50
250.482
 51
318.596
  0
CIRCLE
  8
0
 10
10.1132
 20
9.564
 30
0.0
 40
0.125
  0
ARC
  8
0
 10
10.1132
 20
9.564
 30
0.0
 40
0.103
 50
339.659
 51
348.596
  0
ARC
  8
0
 10
10.1132
 20
9.564
 30
0.0
 40
0.103
 50
330.722
 51
339.659
  0
ARC
  8
0
 10
10.1132
 20
9.564
 30
0.0
 40
0.103
 50
150.722
 51
159.659
  0
ARC
  8
0
 10
10.1132
 20
9.564
 30
0.0
 40
0.103
 50
159.659
 51
168.596
  0
LINE
  8
0
 10
10.0502
 20
9.457
 30
0.0
 11
10.1352
 21
9.687
 31
0.0
  0
LINE
  8
0
 10
10.0912
 20
9.441
 30
0.0
 11
10.1762
 21
9.672
 31
0.0
  0
LINE
  8
0
 10
10.2532
 20
9.704
 30
0.0
 11
10.2012
 21
9.653
 31
0.0
  0
LINE
  8
0
 10
9.9732
 20
9.704
 30
0.0
 11
10.0252
 21
9.653
 31
0.0
  0
LINE
  8
0
 10
10.0252
 20
9.476
 30
0.0
 11
9.9732
 21
9.424
 31
0.0
  0
LINE
  8
0
 10
10.2012
 20
9.476
 30
0.0
 11
10.2532
 21
9.424
 31
0.0
  0
LINE
  8
0
 10
9.9262
 20
9.689
 30
0.0
 11
9.9262
 21
9.439
 31
0.0
  0
LINE
  8
0
 10
10.3012
 20
9.689
 30
0.0
 11
10.3012
 21
9.439
 31
0.0
  0
LINE
  8
0
 10
9.9262
 20
9.439
 30
0.0
 11
9.9732
 21
9.439
 31
0.0
  0
LINE
  8
0
 10
9.9262
 20
9.689
 30
0.0
 11
9.9732
 21
9.689
 31
0.0
  0
LINE
  8
0
 10
10.2532
 20
9.439
 30
0.0
 11
10.3012
 21
9.439
 31
0.0
  0
LINE
  8
0
 10
10.2532
 20
9.689
 30
0.0
 11
10.3012
 21
9.689
 31
0.0
  0
ARC
  8
0
 10
10.1742
 20
9.057
 30
0.0
 40
0.087
 50
70.482
 51
138.596
  0
ARC
  8
0
 10
10.0522
 20
9.322
 30
0.0
 40
0.087
 50
250.482
 51
318.596
  0
LINE
  8
0
 10
10.0502
 20
9.082
 30
0.0
 11
10.1352
 21
9.312
 31
0.0
  0
LINE
  8
0
 10
10.0912
 20
9.066
 30
0.0
 11
10.1762
 21
9.297
 31
0.0
  0
CIRCLE
  8
0
 10
10.1132
 20
9.189
 30
0.0
 40
0.125
  0
POLYLINE
  8
0
 66
     1
 10
0.0
 20
0.0
 30
0.0
 70
     1
  0
VERTEX
  8
0
 10
9.9732
 20
9.049
 30
0.0
  0
VERTEX
  8
0
 10
10.2532
 20
9.049
 30
0.0
  0
VERTEX
  8
0
 10
10.2532
 20
9.329
 30
0.0
  0
VERTEX
  8
0
 10
9.9732
 20
9.329
 30
0.0
  0
SEQEND
  8
0
  0
LINE
  8
0
 10
10.3012
 20
9.314
 30
0.0
 11
10.3012
 21
9.064
 31
0.0
  0
ARC
  8
0
 10
10.2462
 20
9.25
 30
0.0
 40
0.087
 50
180.722
 51
248.835
  0
LINE
  8
0
 10
10.2012
 20
9.101
 30
0.0
 11
10.2532
 21
9.049
 31
0.0
  0
LINE
  8
0
 10
10.2532
 20
9.064
 30
0.0
 11
10.3012
 21
9.064
 31
0.0
  0
ARC
  8
0
 10
10.1132
 20
9.189
 30
0.0
 40
0.103
 50
330.722
 51
339.659
  0
ARC
  8
0
 10
10.1132
 20
9.189
 30
0.0
 40
0.103
 50
339.659
 51
348.596
  0
LINE
  8
0
 10
10.2532
 20
9.329
 30
0.0
 11
10.2012
 21
9.278
 31
0.0
  0
LINE
  8
0
 10
10.2532
 20
9.314
 30
0.0
 11
10.3012
 21
9.314
 31
0.0
  0
LINE
  8
0
 10
9.9262
 20
9.314
 30
0.0
 11
9.9262
 21
9.064
 31
0.0
  0
ARC
  8
0
 10
10.1132
 20
9.189
 30
0.0
 40
0.103
 50
150.722
 51
159.659
  0
LINE
  8
0
 10
10.0252
 20
9.101
 30
0.0
 11
9.9732
 21
9.049
 31
0.0
  0
ARC
  8
0
 10
9.9802
 20
9.129
 30
0.0
 40
0.087
 50
0.722
 51
68.835
  0
ARC
  8
0
 10
10.1132
 20
9.189
 30
0.0
 40
0.103
 50
159.659
 51
168.596
  0
LINE
  8
0
 10
9.9262
 20
9.064
 30
0.0
 11
9.9732
 21
9.064
 31
0.0
  0
LINE
  8
0
 10
9.9732
 20
9.329
 30
0.0
 11
10.0252
 21
9.278
 31
0.0
  0
LINE
  8
0
 10
9.9262
 20
9.314
 30
0.0
 11
9.9732
 21
9.314
 31
0.0
  0
ARC
  8
0
 10
10.1742
 20
9.807
 30
0.0
 40
0.087
 50
70.482
 51
138.596
  0
ARC
  8
0
 10
10.0522
 20
10.072
 30
0.0
 40
0.087
 50
250.482
 51
318.596
  0
LINE
  8
0
 10
10.0502
 20
9.832
 30
0.0
 11
10.1352
 21
10.062
 31
0.0
  0
LINE
  8
0
 10
10.0912
 20
9.816
 30
0.0
 11
10.1762
 21
10.047
 31
0.0
  0
CIRCLE
  8
0
 10
10.1132
 20
9.939
 30
0.0
 40
0.125
  0
POLYLINE
  8
0
 66
     1
 10
0.0
 20
0.0
 30
0.0
 70
     1
  0
VERTEX
  8
0
 10
9.9732
 20
9.799
 30
0.0
  0
VERTEX
  8
0
 10
10.2532
 20
9.799
 30
0.0
  0
VERTEX
  8
0
 10
10.2532
 20
10.079
 30
0.0
  0
VERTEX
  8
0
 10
9.9732
 20
10.079
 30
0.0
  0
SEQEND
  8
0
  0
LINE
  8
0
 10
9.8332
 20
10.107
 30
0.0
 11
10.3932
 21
10.107
 31
0.0
  0
LINE
  8
0
 10
9.8332
 20
10.147
 30
0.0
 11
10.3932
 21
10.147
 31
0.0
  0
ARC
  8
0
 10
10.3932
 20
10.127
 30
0.0
 40
0.02
 50
270.0
 51
90.0
  0
LINE
  8
0
 10
10.3012
 20
10.064
 30
0.0
 11
10.3012
 21
9.814
 31
0.0
  0
ARC
  8
0
 10
10.2462
 20
10.0
 30
0.0
 40
0.087
 50
180.722
 51
248.835
  0
LINE
  8
0
 10
10.2012
 20
9.851
 30
0.0
 11
10.2532
 21
9.799
 31
0.0
  0
LINE
  8
0
 10
10.2532
 20
9.814
 30
0.0
 11
10.3012
 21
9.814
 31
0.0
  0
ARC
  8
0
 10
10.1132
 20
9.939
 30
0.0
 40
0.103
 50
330.722
 51
339.659
  0
ARC
  8
0
 10
10.1132
 20
9.939
 30
0.0
 40
0.103
 50
339.659
 51
348.596
  0
LINE
  8
0
 10
10.2532
 20
10.079
 30
0.0
 11
10.2012
 21
10.028
 31
0.0
  0
LINE
  8
0
 10
10.2532
 20
10.064
 30
0.0
 11
10.3012
 21
10.064
 31
0.0
  0
ARC
  8
0
 10
10.1132
 20
9.939
 30
0.0
 40
0.103
 50
159.659
 51
168.596
  0
ARC
  8
0
 10
9.9802
 20
9.879
 30
0.0
 40
0.087
 50
0.722
 51
68.835
  0
LINE
  8
0
 10
9.9262
 20
10.064
 30
0.0
 11
9.9262
 21
9.814
 31
0.0
  0
LINE
  8
0
 10
10.0252
 20
9.851
 30
0.0
 11
9.9732
 21
9.799
 31
0.0
  0
LINE
  8
0
 10
9.9262
 20
9.814
 30
0.0
 11
9.9732
 21
9.814
 31
0.0
  0
LINE
  8
0
 10
9.9732
 20
10.079
 30
0.0
 11
10.0252
 21
10.028
 31
0.0
  0
ARC
  8
0
 10
10.1132
 20
9.939
 30
0.0
 40
0.103
 50
150.722
 51
159.659
  0
LINE
  8
0
 10
9.9262
 20
10.064
 30
0.0
 11
9.9732
 21
10.064
 31
0.0
  0
ARC
  8
0
 10
9.8332
 20
10.127
 30
0.0
 40
0.02
 50
90.0
 51
270.0
  0
LINE
  8
0
 10
9.8632
 20
10.107
 30
0.0
 11
9.8632
 21
9.772
 31
0.0
  0
LINE
  8
0
 10
10.3632
 20
10.107
 30
0.0
 11
10.3632
 21
9.772
 31
0.0
  0
ARC
  8
0
 10
10.1742
 20
10.182
 30
0.0
 40
0.087
 50
70.482
 51
138.596
  0
ARC
  8
0
 10
10.0522
 20
10.447
 30
0.0
 40
0.087
 50
250.482
 51
318.596
  0
LINE
  8
0
 10
10.0502
 20
10.207
 30
0.0
 11
10.1352
 21
10.437
 31
0.0
  0
LINE
  8
0
 10
10.0912
 20
10.191
 30
0.0
 11
10.1762
 21
10.422
 31
0.0
  0
CIRCLE
  8
0
 10
10.1132
 20
10.314
 30
0.0
 40
0.125
  0
POLYLINE
  8
0
 66
     1
 10
0.0
 20
0.0
 30
0.0
 70
     1
  0
VERTEX
  8
0
 10
9.9732
 20
10.174
 30
0.0
  0
VERTEX
  8
0
 10
10.2532
 20
10.174
 30
0.0
  0
VERTEX
  8
0
 10
10.2532
 20
10.454
 30
0.0
  0
VERTEX
  8
0
 10
9.9732
 20
10.454
 30
0.0
  0
SEQEND
  8
0
  0
LINE
  8
0
 10
9.8332
 20
10.482
 30
0.0
 11
10.3932
 21
10.482
 31
0.0
  0
LINE
  8
0
 10
9.8332
 20
10.522
 30
0.0
 11
10.3932
 21
10.522
 31
0.0
  0
ARC
  8
0
 10
10.3932
 20
10.502
 30
0.0
 40
0.02
 50
270.0
 51
90.0
  0
LINE
  8
0
 10
10.3012
 20
10.439
 30
0.0
 11
10.3012
 21
10.189
 31
0.0
  0
ARC
  8
0
 10
10.2462
 20
10.375
 30
0.0
 40
0.087
 50
180.722
 51
248.835
  0
LINE
  8
0
 10
10.2012
 20
10.226
 30
0.0
 11
10.2532
 21
10.174
 31
0.0
  0
LINE
  8
0
 10
10.2532
 20
10.189
 30
0.0
 11
10.3012
 21
10.189
 31
0.0
  0
ARC
  8
0
 10
10.1132
 20
10.314
 30
0.0
 40
0.103
 50
330.722
 51
339.659
  0
ARC
  8
0
 10
10.1132
 20
10.314
 30
0.0
 40
0.103
 50
339.659
 51
348.596
  0
LINE
  8
0
 10
10.2532
 20
10.454
 30
0.0
 11
10.2012
 21
10.403
 31
0.0
  0
LINE
  8
0
 10
10.2532
 20
10.439
 30
0.0
 11
10.3012
 21
10.439
 31
0.0
  0
ARC
  8
0
 10
10.1132
 20
10.314
 30
0.0
 40
0.103
 50
159.659
 51
168.596
  0
ARC
  8
0
 10
9.9802
 20
10.254
 30
0.0
 40
0.087
 50
0.722
 51
68.835
  0
LINE
  8
0
 10
9.9262
 20
10.439
 30
0.0
 11
9.9262
 21
10.189
 31
0.0
  0
LINE
  8
0
 10
10.0252
 20
10.226
 30
0.0
 11
9.9732
 21
10.174
 31
0.0
  0
LINE
  8
0
 10
9.9262
 20
10.189
 30
0.0
 11
9.9732
 21
10.189
 31
0.0
  0
LINE
  8
0
 10
9.9732
 20
10.454
 30
0.0
 11
10.0252
 21
10.403
 31
0.0
  0
ARC
  8
0
 10
10.1132
 20
10.314
 30
0.0
 40
0.103
 50
150.722
 51
159.659
  0
LINE
  8
0
 10
9.9262
 20
10.439
 30
0.0
 11
9.9732
 21
10.439
 31
0.0
  0
ARC
  8
0
 10
9.8332
 20
10.502
 30
0.0
 40
0.02
 50
90.0
 51
270.0
  0
LINE
  8
0
 10
9.8632
 20
10.482
 30
0.0
 11
9.8632
 21
10.147
 31
0.0
  0
LINE
  8
0
 10
10.3632
 20
10.482
 30
0.0
 11
10.3632
 21
10.147
 31
0.0
  0
ARC
  8
0
 10
10.1742
 20
10.557
 30
0.0
 40
0.087
 50
70.482
 51
138.596
  0
ARC
  8
0
 10
10.0522
 20
10.822
 30
0.0
 40
0.087
 50
250.482
 51
318.596
  0
LINE
  8
0
 10
10.0502
 20
10.582
 30
0.0
 11
10.1352
 21
10.812
 31
0.0
  0
LINE
  8
0
 10
10.0912
 20
10.566
 30
0.0
 11
10.1762
 21
10.797
 31
0.0
  0
CIRCLE
  8
0
 10
10.1132
 20
10.689
 30
0.0
 40
0.125
  0
POLYLINE
  8
0
 66
     1
 10
0.0
 20
0.0
 30
0.0
 70
     1
  0
VERTEX
  8
0
 10
9.9732
 20
10.549
 30
0.0
  0
VERTEX
  8
0
 10
10.2532
 20
10.549
 30
0.0
  0
VERTEX
  8
0
 10
10.2532
 20
10.829
 30
0.0
  0
VERTEX
  8
0
 10
9.9732
 20
10.829
 30
0.0
  0
SEQEND
  8
0
  0
LINE
  8
0
 10
9.8332
 20
10.857
 30
0.0
 11
10.3932
 21
10.857
 31
0.0
  0
LINE
  8
0
 10
9.8332
 20
10.897
 30
0.0
 11
10.3932
 21
10.897
 31
0.0
  0
ARC
  8
0
 10
10.3932
 20
10.877
 30
0.0
 40
0.02
 50
270.0
 51
90.0
  0
LINE
  8
0
 10
10.3012
 20
10.814
 30
0.0
 11
10.3012
 21
10.564
 31
0.0
  0
ARC
  8
0
 10
10.2462
 20
10.75
 30
0.0
 40
0.087
 50
180.722
 51
248.835
  0
LINE
  8
0
 10
10.2012
 20
10.601
 30
0.0
 11
10.2532
 21
10.549
 31
0.0
  0
LINE
  8
0
 10
10.2532
 20
10.564
 30
0.0
 11
10.3012
 21
10.564
 31
0.0
  0
ARC
  8
0
 10
10.1132
 20
10.689
 30
0.0
 40
0.103
 50
330.722
 51
339.659
  0
ARC
  8
0
 10
10.1132
 20
10.689
 30
0.0
 40
0.103
 50
339.659
 51
348.596
  0
LINE
  8
0
 10
10.2532
 20
10.829
 30
0.0
 11
10.2012
 21
10.778
 31
0.0
  0
LINE
  8
0
 10
10.2532
 20
10.814
 30
0.0
 11
10.3012
 21
10.814
 31
0.0
  0
ARC
  8
0
 10
10.1132
 20
10.689
 30
0.0
 40
0.103
 50
159.659
 51
168.596
  0
ARC
  8
0
 10
9.9802
 20
10.629
 30
0.0
 40
0.087
 50
0.722
 51
68.835
  0
LINE
  8
0
 10
9.9262
 20
10.814
 30
0.0
 11
9.9262
 21
10.564
 31
0.0
  0
LINE
  8
0
 10
10.0252
 20
10.601
 30
0.0
 11
9.9732
 21
10.549
 31
0.0
  0
LINE
  8
0
 10
9.9262
 20
10.564
 30
0.0
 11
9.9732
 21
10.564
 31
0.0
  0
LINE
  8
0
 10
9.9732
 20
10.829
 30
0.0
 11
10.0252
 21
10.778
 31
0.0
  0
ARC
  8
0
 10
10.1132
 20
10.689
 30
0.0
 40
0.103
 50
150.722
 51
159.659
  0
LINE
  8
0
 10
9.9262
 20
10.814
 30
0.0
 11
9.9732
 21
10.814
 31
0.0
  0
ARC
  8
0
 10
9.8332
 20
10.877
 30
0.0
 40
0.02
 50
90.0
 51
270.0
  0
LINE
  8
0
 10
9.8632
 20
10.857
 30
0.0
 11
9.8632
 21
10.522
 31
0.0
  0
LINE
  8
0
 10
10.3632
 20
10.857
 30
0.0
 11
10.3632
 21
10.522
 31
0.0
  0
CIRCLE
  8
0
 10
5.33
 20
4.7145
 30
0.0
 40
0.1325
  0
POLYLINE
  8
0
 66
     1
 10
0.0
 20
0.0
 30
0.0
 70
     1
  0
VERTEX
  8
0
 10
5.2942
 20
4.7765
 30
0.0
  0
VERTEX
  8
0
 10
5.2584
 20
4.7145
 30
0.0
  0
VERTEX
  8
0
 10
5.2942
 20
4.6525
 30
0.0
  0
VERTEX
  8
0
 10
5.3658
 20
4.6525
 30
0.0
  0
VERTEX
  8
0
 10
5.4016
 20
4.7145
 30
0.0
  0
VERTEX
  8
0
 10
5.3658
 20
4.7765
 30
0.0
  0
SEQEND
  8
0
  0
LINE
  8
0
 10
6.03
 20
4.0985
 30
0.0
 11
7.172
 21
4.0985
 31
0.0
  0
LINE
  8
0
 10
6.03
 20
5.3305
 30
0.0
 11
7.172
 21
5.3305
 31
0.0
  0
LINE
  8
0
 10
6.03
 20
5.3305
 30
0.0
 11
6.03
 21
4.0985
 31
0.0
  0
LINE
  8
0
 10
7.172
 20
5.3305
 30
0.0
 11
7.172
 21
4.0985
 31
0.0
  0
ARC
  8
0
 10
8.2818
 20
4.7145
 30
0.0
 40
2.1825
 50
167.9089
 51
192.0911
  0
ARC
  8
0
 10
4.9202
 20
4.7145
 30
0.0
 40
2.1825
 50
347.9089
 51
12.0911
  0
ARC
  8
0
 10
6.601
 20
6.3922
 30
0.0
 40
2.1825
 50
258.013
 51
281.987
  0
ARC
  8
0
 10
6.601
 20
3.0368
 30
0.0
 40
2.1825
 50
78.013
 51
101.987
  0
LINE
  8
0
 10
6.03
 20
5.3305
 30
0.0
 11
6.1477
 21
5.1717
 31
0.0
  0
LINE
  8
0
 10
7.172
 20
5.3305
 30
0.0
 11
7.0543
 21
5.1717
 31
0.0
  0
LINE
  8
0
 10
6.1477
 20
4.2573
 30
0.0
 11
6.03
 21
4.0985
 31
0.0
  0
LINE
  8
0
 10
7.0543
 20
4.2573
 30
0.0
 11
7.172
 21
4.0985
 31
0.0
  0
ARC
  8
0
 10
4.9202
 20
4.7145
 30
0.0
 40
2.0525
 50
350.295
 51
9.705
  0
ARC
  8
0
 10
8.2818
 20
4.7145
 30
0.0
 40
2.0525
 50
170.295
 51
189.705
  0
ARC
  8
0
 10
6.601
 20
3.0368
 30
0.0
 40
2.0525
 50
80.399
 51
99.601
  0
ARC
  8
0
 10
6.601
 20
6.3922
 30
0.0
 40
2.0525
 50
260.399
 51
279.601
  0
LINE
  8
0
 10
6.2355
 20
4.8743
 30
0.0
 11
6.9665
 21
4.8743
 31
0.0
  0
TEXT
  8
0
 10
5.7301
 20
5.0557
 30
0.0
 40
0.09
  1
ON
  7
ROMANS
  0
LINE
  8
0
 10
5.03
 20
5.829
 30
0.0
 11
22.03
 21
5.829
 31
0.0
  0
LINE
  8
0
 10
5.03
 20
3.6
 30
0.0
 11
22.03
 21
3.6
 31
0.0
  0
TEXT
  8
0
 10
7.5628
 20
4.0985
 30
0.0
 40
0.08
  1
PROFESSIONAL AMPLIFIER
  7
ROMAND
  0
LINE
  8
0
 10
9.48
 20
5.7745
 30
0.0
 11
9.48
 21
4.7745
 31
0.0
  0
LINE
  8
0
 10
9.48
 20
3.6545
 30
0.0
 11
9.605
 21
3.6545
 31
0.0
  0
LINE
  8
0
 10
9.605
 20
5.7745
 30
0.0
 11
9.605
 21
4.7745
 31
0.0
  0
LINE
  8
0
 10
9.48
 20
4.6545
 30
0.0
 11
9.605
 21
4.6545
 31
0.0
  0
LINE
  8
0
 10
9.48
 20
4.7745
 30
0.0
 11
9.605
 21
4.7745
 31
0.0
  0
LINE
  8
0
 10
9.48
 20
5.7745
 30
0.0
 11
9.605
 21
5.7745
 31
0.0
  0
LINE
  8
0
 10
9.48
 20
4.6545
 30
0.0
 11
9.48
 21
3.6545
 31
0.0
  0
LINE
  8
0
 10
9.605
 20
4.6545
 30
0.0
 11
9.605
 21
3.6545
 31
0.0
  0
LINE
  8
0
 10
9.855
 20
4.6545
 30
0.0
 11
9.855
 21
3.6545
 31
0.0
  0
LINE
  8
0
 10
9.73
 20
4.6545
 30
0.0
 11
9.73
 21
3.6545
 31
0.0
  0
LINE
  8
0
 10
9.73
 20
3.6545
 30
0.0
 11
9.855
 21
3.6545
 31
0.0
  0
LINE
  8
0
 10
9.855
 20
5.7745
 30
0.0
 11
9.855
 21
4.7745
 31
0.0
  0
LINE
  8
0
 10
9.73
 20
5.7745
 30
0.0
 11
9.73
 21
4.7745
 31
0.0
  0
LINE
  8
0
 10
9.73
 20
4.6545
 30
0.0
 11
9.855
 21
4.6545
 31
0.0
  0
LINE
  8
0
 10
9.73
 20
4.7745
 30
0.0
 11
9.855
 21
4.7745
 31
0.0
  0
LINE
  8
0
 10
9.73
 20
5.7745
 30
0.0
 11
9.855
 21
5.7745
 31
0.0
  0
LINE
  8
0
 10
10.105
 20
4.6545
 30
0.0
 11
10.105
 21
3.6545
 31
0.0
  0
LINE
  8
0
 10
9.98
 20
4.6545
 30
0.0
 11
9.98
 21
3.6545
 31
0.0
  0
LINE
  8
0
 10
9.98
 20
3.6545
 30
0.0
 11
10.105
 21
3.6545
 31
0.0
  0
LINE
  8
0
 10
10.105
 20
5.7745
 30
0.0
 11
10.105
 21
4.7745
 31
0.0
  0
LINE
  8
0
 10
9.98
 20
5.7745
 30
0.0
 11
9.98
 21
4.7745
 31
0.0
  0
LINE
  8
0
 10
9.98
 20
4.6545
 30
0.0
 11
10.105
 21
4.6545
 31
0.0
  0
LINE
  8
0
 10
9.98
 20
4.7745
 30
0.0
 11
10.105
 21
4.7745
 31
0.0
  0
LINE
  8
0
 10
9.98
 20
5.7745
 30
0.0
 11
10.105
 21
5.7745
 31
0.0
  0
LINE
  8
0
 10
10.355
 20
4.6545
 30
0.0
 11
10.355
 21
3.6545
 31
0.0
  0
LINE
  8
0
 10
10.23
 20
4.6545
 30
0.0
 11
10.23
 21
3.6545
 31
0.0
  0
LINE
  8
0
 10
10.23
 20
3.6545
 30
0.0
 11
10.355
 21
3.6545
 31
0.0
  0
LINE
  8
0
 10
10.355
 20
5.7745
 30
0.0
 11
10.355
 21
4.7745
 31
0.0
  0
LINE
  8
0
 10
10.23
 20
5.7745
 30
0.0
 11
10.23
 21
4.7745
 31
0.0
  0
LINE
  8
0
 10
10.23
 20
4.6545
 30
0.0
 11
10.355
 21
4.6545
 31
0.0
  0
LINE
  8
0
 10
10.23
 20
4.7745
 30
0.0
 11
10.355
 21
4.7745
 31
0.0
  0
LINE
  8
0
 10
10.23
 20
5.7745
 30
0.0
 11
10.355
 21
5.7745
 31
0.0
  0
LINE
  8
0
 10
10.605
 20
4.6545
 30
0.0
 11
10.605
 21
3.6545
 31
0.0
  0
LINE
  8
0
 10
10.48
 20
4.6545
 30
0.0
 11
10.48
 21
3.6545
 31
0.0
  0
LINE
  8
0
 10
10.48
 20
3.6545
 30
0.0
 11
10.605
 21
3.6545
 31
0.0
  0
LINE
  8
0
 10
10.605
 20
5.7745
 30
0.0
 11
10.605
 21
4.7745
 31
0.0
  0
LINE
  8
0
 10
10.48
 20
5.7745
 30
0.0
 11
10.48
 21
4.7745
 31
0.0
  0
LINE
  8
0
 10
10.48
 20
4.6545
 30
0.0
 11
10.605
 21
4.6545
 31
0.0
  0
LINE
  8
0
 10
10.48
 20
4.7745
 30
0.0
 11
10.605
 21
4.7745
 31
0.0
  0
LINE
  8
0
 10
10.48
 20
5.7745
 30
0.0
 11
10.605
 21
5.7745
 31
0.0
  0
LINE
  8
0
 10
10.855
 20
4.6545
 30
0.0
 11
10.855
 21
3.6545
 31
0.0
  0
LINE
  8
0
 10
10.73
 20
4.6545
 30
0.0
 11
10.73
 21
3.6545
 31
0.0
  0
LINE
  8
0
 10
10.73
 20
3.6545
 30
0.0
 11
10.855
 21
3.6545
 31
0.0
  0
LINE
  8
0
 10
10.855
 20
5.7745
 30
0.0
 11
10.855
 21
4.7745
 31
0.0
  0
LINE
  8
0
 10
10.73
 20
5.7745
 30
0.0
 11
10.73
 21
4.7745
 31
0.0
  0
LINE
  8
0
 10
10.73
 20
4.6545
 30
0.0
 11
10.855
 21
4.6545
 31
0.0
  0
LINE
  8
0
 10
10.73
 20
4.7745
 30
0.0
 11
10.855
 21
4.7745
 31
0.0
  0
LINE
  8
0
 10
10.73
 20
5.7745
 30
0.0
 11
10.855
 21
5.7745
 31
0.0
  0
LINE
  8
0
 10
11.105
 20
4.6545
 30
0.0
 11
11.105
 21
3.6545
 31
0.0
  0
LINE
  8
0
 10
10.98
 20
4.6545
 30
0.0
 11
10.98
 21
3.6545
 31
0.0
  0
LINE
  8
0
 10
10.98
 20
3.6545
 30
0.0
 11
11.105
 21
3.6545
 31
0.0
  0
LINE
  8
0
 10
11.105
 20
5.7745
 30
0.0
 11
11.105
 21
4.7745
 31
0.0
  0
LINE
  8
0
 10
10.98
 20
5.7745
 30
0.0
 11
10.98
 21
4.7745
 31
0.0
  0
LINE
  8
0
 10
10.98
 20
4.6545
 30
0.0
 11
11.105
 21
4.6545
 31
0.0
  0
LINE
  8
0
 10
10.98
 20
4.7745
 30
0.0
 11
11.105
 21
4.7745
 31
0.0
  0
LINE
  8
0
 10
10.98
 20
5.7745
 30
0.0
 11
11.105
 21
5.7745
 31
0.0
  0
LINE
  8
0
 10
11.355
 20
4.6545
 30
0.0
 11
11.355
 21
3.6545
 31
0.0
  0
LINE
  8
0
 10
11.23
 20
4.6545
 30
0.0
 11
11.23
 21
3.6545
 31
0.0
  0
LINE
  8
0
 10
11.23
 20
3.6545
 30
0.0
 11
11.355
 21
3.6545
 31
0.0
  0
LINE
  8
0
 10
11.355
 20
5.7745
 30
0.0
 11
11.355
 21
4.7745
 31
0.0
  0
LINE
  8
0
 10
11.23
 20
5.7745
 30
0.0
 11
11.23
 21
4.7745
 31
0.0
  0
LINE
  8
0
 10
11.23
 20
4.6545
 30
0.0
 11
11.355
 21
4.6545
 31
0.0
  0
LINE
  8
0
 10
11.23
 20
4.7745
 30
0.0
 11
11.355
 21
4.7745
 31
0.0
  0
LINE
  8
0
 10
11.23
 20
5.7745
 30
0.0
 11
11.355
 21
5.7745
 31
0.0
  0
LINE
  8
0
 10
11.605
 20
4.6545
 30
0.0
 11
11.605
 21
3.6545
 31
0.0
  0
LINE
  8
0
 10
11.48
 20
4.6545
 30
0.0
 11
11.48
 21
3.6545
 31
0.0
  0
LINE
  8
0
 10
11.48
 20
3.6545
 30
0.0
 11
11.605
 21
3.6545
 31
0.0
  0
LINE
  8
0
 10
11.605
 20
5.7745
 30
0.0
 11
11.605
 21
4.7745
 31
0.0
  0
LINE
  8
0
 10
11.48
 20
5.7745
 30
0.0
 11
11.48
 21
4.7745
 31
0.0
  0
LINE
  8
0
 10
11.48
 20
4.6545
 30
0.0
 11
11.605
 21
4.6545
 31
0.0
  0
LINE
  8
0
 10
11.48
 20
4.7745
 30
0.0
 11
11.605
 21
4.7745
 31
0.0
  0
LINE
  8
0
 10
11.48
 20
5.7745
 30
0.0
 11
11.605
 21
5.7745
 31
0.0
  0
LINE
  8
0
 10
11.855
 20
4.6545
 30
0.0
 11
11.855
 21
3.6545
 31
0.0
  0
LINE
  8
0
 10
11.73
 20
4.6545
 30
0.0
 11
11.73
 21
3.6545
 31
0.0
  0
LINE
  8
0
 10
11.73
 20
3.6545
 30
0.0
 11
11.855
 21
3.6545
 31
0.0
  0
LINE
  8
0
 10
11.855
 20
5.7745
 30
0.0
 11
11.855
 21
4.7745
 31
0.0
  0
LINE
  8
0
 10
11.73
 20
5.7745
 30
0.0
 11
11.73
 21
4.7745
 31
0.0
  0
LINE
  8
0
 10
11.73
 20
4.6545
 30
0.0
 11
11.855
 21
4.6545
 31
0.0
  0
LINE
  8
0
 10
11.73
 20
4.7745
 30
0.0
 11
11.855
 21
4.7745
 31
0.0
  0
LINE
  8
0
 10
11.73
 20
5.7745
 30
0.0
 11
11.855
 21
5.7745
 31
0.0
  0
LINE
  8
0
 10
12.105
 20
4.6545
 30
0.0
 11
12.105
 21
3.6545
 31
0.0
  0
LINE
  8
0
 10
11.98
 20
4.6545
 30
0.0
 11
11.98
 21
3.6545
 31
0.0
  0
LINE
  8
0
 10
11.98
 20
3.6545
 30
0.0
 11
12.105
 21
3.6545
 31
0.0
  0
LINE
  8
0
 10
12.105
 20
5.7745
 30
0.0
 11
12.105
 21
4.7745
 31
0.0
  0
LINE
  8
0
 10
11.98
 20
5.7745
 30
0.0
 11
11.98
 21
4.7745
 31
0.0
  0
LINE
  8
0
 10
11.98
 20
4.6545
 30
0.0
 11
12.105
 21
4.6545
 31
0.0
  0
LINE
  8
0
 10
11.98
 20
4.7745
 30
0.0
 11
12.105
 21
4.7745
 31
0.0
  0
LINE
  8
0
 10
11.98
 20
5.7745
 30
0.0
 11
12.105
 21
5.7745
 31
0.0
  0
LINE
  8
0
 10
12.355
 20
4.6545
 30
0.0
 11
12.355
 21
3.6545
 31
0.0
  0
LINE
  8
0
 10
12.23
 20
4.6545
 30
0.0
 11
12.23
 21
3.6545
 31
0.0
  0
LINE
  8
0
 10
12.23
 20
3.6545
 30
0.0
 11
12.355
 21
3.6545
 31
0.0
  0
LINE
  8
0
 10
12.355
 20
5.7745
 30
0.0
 11
12.355
 21
4.7745
 31
0.0
  0
LINE
  8
0
 10
12.23
 20
5.7745
 30
0.0
 11
12.23
 21
4.7745
 31
0.0
  0
LINE
  8
0
 10
12.23
 20
4.6545
 30
0.0
 11
12.355
 21
4.6545
 31
0.0
  0
LINE
  8
0
 10
12.23
 20
4.7745
 30
0.0
 11
12.355
 21
4.7745
 31
0.0
  0
LINE
  8
0
 10
12.23
 20
5.7745
 30
0.0
 11
12.355
 21
5.7745
 31
0.0
  0
LINE
  8
0
 10
12.605
 20
4.6545
 30
0.0
 11
12.605
 21
3.6545
 31
0.0
  0
LINE
  8
0
 10
12.48
 20
4.6545
 30
0.0
 11
12.48
 21
3.6545
 31
0.0
  0
LINE
  8
0
 10
12.48
 20
3.6545
 30
0.0
 11
12.605
 21
3.6545
 31
0.0
  0
LINE
  8
0
 10
12.605
 20
5.7745
 30
0.0
 11
12.605
 21
4.7745
 31
0.0
  0
LINE
  8
0
 10
12.48
 20
5.7745
 30
0.0
 11
12.48
 21
4.7745
 31
0.0
  0
LINE
  8
0
 10
12.48
 20
4.6545
 30
0.0
 11
12.605
 21
4.6545
 31
0.0
  0
LINE
  8
0
 10
12.48
 20
4.7745
 30
0.0
 11
12.605
 21
4.7745
 31
0.0
  0
LINE
  8
0
 10
12.48
 20
5.7745
 30
0.0
 11
12.605
 21
5.7745
 31
0.0
  0
LINE
  8
0
 10
12.855
 20
4.6545
 30
0.0
 11
12.855
 21
3.6545
 31
0.0
  0
LINE
  8
0
 10
12.73
 20
4.6545
 30
0.0
 11
12.73
 21
3.6545
 31
0.0
  0
LINE
  8
0
 10
12.73
 20
3.6545
 30
0.0
 11
12.855
 21
3.6545
 31
0.0
  0
LINE
  8
0
 10
12.855
 20
5.7745
 30
0.0
 11
12.855
 21
4.7745
 31
0.0
  0
LINE
  8
0
 10
12.73
 20
5.7745
 30
0.0
 11
12.73
 21
4.7745
 31
0.0
  0
LINE
  8
0
 10
12.73
 20
4.6545
 30
0.0
 11
12.855
 21
4.6545
 31
0.0
  0
LINE
  8
0
 10
12.73
 20
4.7745
 30
0.0
 11
12.855
 21
4.7745
 31
0.0
  0
LINE
  8
0
 10
12.73
 20
5.7745
 30
0.0
 11
12.855
 21
5.7745
 31
0.0
  0
LINE
  8
0
 10
13.105
 20
4.6545
 30
0.0
 11
13.105
 21
3.6545
 31
0.0
  0
LINE
  8
0
 10
12.98
 20
4.6545
 30
0.0
 11
12.98
 21
3.6545
 31
0.0
  0
LINE
  8
0
 10
12.98
 20
3.6545
 30
0.0
 11
13.105
 21
3.6545
 31
0.0
  0
LINE
  8
0
 10
13.105
 20
5.7745
 30
0.0
 11
13.105
 21
4.7745
 31
0.0
  0
LINE
  8
0
 10
12.98
 20
5.7745
 30
0.0
 11
12.98
 21
4.7745
 31
0.0
  0
LINE
  8
0
 10
12.98
 20
4.6545
 30
0.0
 11
13.105
 21
4.6545
 31
0.0
  0
LINE
  8
0
 10
12.98
 20
4.7745
 30
0.0
 11
13.105
 21
4.7745
 31
0.0
  0
LINE
  8
0
 10
12.98
 20
5.7745
 30
0.0
 11
13.105
 21
5.7745
 31
0.0
  0
LINE
  8
0
 10
13.355
 20
4.6545
 30
0.0
 11
13.355
 21
3.6545
 31
0.0
  0
LINE
  8
0
 10
13.23
 20
4.6545
 30
0.0
 11
13.23
 21
3.6545
 31
0.0
  0
LINE
  8
0
 10
13.23
 20
3.6545
 30
0.0
 11
13.355
 21
3.6545
 31
0.0
  0
LINE
  8
0
 10
13.355
 20
5.7745
 30
0.0
 11
13.355
 21
4.7745
 31
0.0
  0
LINE
  8
0
 10
13.23
 20
5.7745
 30
0.0
 11
13.23
 21
4.7745
 31
0.0
  0
LINE
  8
0
 10
13.23
 20
4.6545
 30
0.0
 11
13.355
 21
4.6545
 31
0.0
  0
LINE
  8
0
 10
13.23
 20
4.7745
 30
0.0
 11
13.355
 21
4.7745
 31
0.0
  0
LINE
  8
0
 10
13.23
 20
5.7745
 30
0.0
 11
13.355
 21
5.7745
 31
0.0
  0
LINE
  8
0
 10
13.605
 20
4.6545
 30
0.0
 11
13.605
 21
3.6545
 31
0.0
  0
LINE
  8
0
 10
13.48
 20
4.6545
 30
0.0
 11
13.48
 21
3.6545
 31
0.0
  0
LINE
  8
0
 10
13.48
 20
3.6545
 30
0.0
 11
13.605
 21
3.6545
 31
0.0
  0
LINE
  8
0
 10
13.605
 20
5.7745
 30
0.0
 11
13.605
 21
4.7745
 31
0.0
  0
LINE
  8
0
 10
13.48
 20
5.7745
 30
0.0
 11
13.48
 21
4.7745
 31
0.0
  0
LINE
  8
0
 10
13.48
 20
4.6545
 30
0.0
 11
13.605
 21
4.6545
 31
0.0
  0
LINE
  8
0
 10
13.48
 20
4.7745
 30
0.0
 11
13.605
 21
4.7745
 31
0.0
  0
LINE
  8
0
 10
13.48
 20
5.7745
 30
0.0
 11
13.605
 21
5.7745
 31
0.0
  0
LINE
  8
0
 10
13.855
 20
4.6545
 30
0.0
 11
13.855
 21
3.6545
 31
0.0
  0
LINE
  8
0
 10
13.73
 20
4.6545
 30
0.0
 11
13.73
 21
3.6545
 31
0.0
  0
LINE
  8
0
 10
13.73
 20
3.6545
 30
0.0
 11
13.855
 21
3.6545
 31
0.0
  0
LINE
  8
0
 10
13.855
 20
5.7745
 30
0.0
 11
13.855
 21
4.7745
 31
0.0
  0
LINE
  8
0
 10
13.73
 20
5.7745
 30
0.0
 11
13.73
 21
4.7745
 31
0.0
  0
LINE
  8
0
 10
13.73
 20
4.6545
 30
0.0
 11
13.855
 21
4.6545
 31
0.0
  0
LINE
  8
0
 10
13.73
 20
4.7745
 30
0.0
 11
13.855
 21
4.7745
 31
0.0
  0
LINE
  8
0
 10
13.73
 20
5.7745
 30
0.0
 11
13.855
 21
5.7745
 31
0.0
  0
LINE
  8
0
 10
14.105
 20
4.6545
 30
0.0
 11
14.105
 21
3.6545
 31
0.0
  0
LINE
  8
0
 10
13.98
 20
4.6545
 30
0.0
 11
13.98
 21
3.6545
 31
0.0
  0
LINE
  8
0
 10
13.98
 20
3.6545
 30
0.0
 11
14.105
 21
3.6545
 31
0.0
  0
LINE
  8
0
 10
14.105
 20
5.7745
 30
0.0
 11
14.105
 21
4.7745
 31
0.0
  0
LINE
  8
0
 10
13.98
 20
5.7745
 30
0.0
 11
13.98
 21
4.7745
 31
0.0
  0
LINE
  8
0
 10
13.98
 20
4.6545
 30
0.0
 11
14.105
 21
4.6545
 31
0.0
  0
LINE
  8
0
 10
13.98
 20
4.7745
 30
0.0
 11
14.105
 21
4.7745
 31
0.0
  0
LINE
  8
0
 10
13.98
 20
5.7745
 30
0.0
 11
14.105
 21
5.7745
 31
0.0
  0
LINE
  8
0
 10
14.355
 20
4.6545
 30
0.0
 11
14.355
 21
3.6545
 31
0.0
  0
LINE
  8
0
 10
14.23
 20
4.6545
 30
0.0
 11
14.23
 21
3.6545
 31
0.0
  0
LINE
  8
0
 10
14.23
 20
3.6545
 30
0.0
 11
14.355
 21
3.6545
 31
0.0
  0
LINE
  8
0
 10
14.355
 20
5.7745
 30
0.0
 11
14.355
 21
4.7745
 31
0.0
  0
LINE
  8
0
 10
14.23
 20
5.7745
 30
0.0
 11
14.23
 21
4.7745
 31
0.0
  0
LINE
  8
0
 10
14.23
 20
4.6545
 30
0.0
 11
14.355
 21
4.6545
 31
0.0
  0
LINE
  8
0
 10
14.23
 20
4.7745
 30
0.0
 11
14.355
 21
4.7745
 31
0.0
  0
LINE
  8
0
 10
14.23
 20
5.7745
 30
0.0
 11
14.355
 21
5.7745
 31
0.0
  0
LINE
  8
0
 10
14.605
 20
4.6545
 30
0.0
 11
14.605
 21
3.6545
 31
0.0
  0
LINE
  8
0
 10
14.48
 20
4.6545
 30
0.0
 11
14.48
 21
3.6545
 31
0.0
  0
LINE
  8
0
 10
14.48
 20
3.6545
 30
0.0
 11
14.605
 21
3.6545
 31
0.0
  0
LINE
  8
0
 10
14.605
 20
5.7745
 30
0.0
 11
14.605
 21
4.7745
 31
0.0
  0
LINE
  8
0
 10
14.48
 20
5.7745
 30
0.0
 11
14.48
 21
4.7745
 31
0.0
  0
LINE
  8
0
 10
14.48
 20
4.6545
 30
0.0
 11
14.605
 21
4.6545
 31
0.0
  0
LINE
  8
0
 10
14.48
 20
4.7745
 30
0.0
 11
14.605
 21
4.7745
 31
0.0
  0
LINE
  8
0
 10
14.48
 20
5.7745
 30
0.0
 11
14.605
 21
5.7745
 31
0.0
  0
LINE
  8
0
 10
14.855
 20
4.6545
 30
0.0
 11
14.855
 21
3.6545
 31
0.0
  0
LINE
  8
0
 10
14.73
 20
4.6545
 30
0.0
 11
14.73
 21
3.6545
 31
0.0
  0
LINE
  8
0
 10
14.73
 20
3.6545
 30
0.0
 11
14.855
 21
3.6545
 31
0.0
  0
LINE
  8
0
 10
14.855
 20
5.7745
 30
0.0
 11
14.855
 21
4.7745
 31
0.0
  0
LINE
  8
0
 10
14.73
 20
5.7745
 30
0.0
 11
14.73
 21
4.7745
 31
0.0
  0
LINE
  8
0
 10
14.73
 20
4.6545
 30
0.0
 11
14.855
 21
4.6545
 31
0.0
  0
LINE
  8
0
 10
14.73
 20
4.7745
 30
0.0
 11
14.855
 21
4.7745
 31
0.0
  0
LINE
  8
0
 10
14.73
 20
5.7745
 30
0.0
 11
14.855
 21
5.7745
 31
0.0
  0
LINE
  8
0
 10
15.105
 20
4.6545
 30
0.0
 11
15.105
 21
3.6545
 31
0.0
  0
LINE
  8
0
 10
14.98
 20
4.6545
 30
0.0
 11
14.98
 21
3.6545
 31
0.0
  0
LINE
  8
0
 10
14.98
 20
3.6545
 30
0.0
 11
15.105
 21
3.6545
 31
0.0
  0
LINE
  8
0
 10
15.105
 20
5.7745
 30
0.0
 11
15.105
 21
4.7745
 31
0.0
  0
LINE
  8
0
 10
14.98
 20
5.7745
 30
0.0
 11
14.98
 21
4.7745
 31
0.0
  0
LINE
  8
0
 10
14.98
 20
4.6545
 30
0.0
 11
15.105
 21
4.6545
 31
0.0
  0
LINE
  8
0
 10
14.98
 20
4.7745
 30
0.0
 11
15.105
 21
4.7745
 31
0.0
  0
LINE
  8
0
 10
14.98
 20
5.7745
 30
0.0
 11
15.105
 21
5.7745
 31
0.0
  0
LINE
  8
0
 10
15.355
 20
4.6545
 30
0.0
 11
15.355
 21
3.6545
 31
0.0
  0
LINE
  8
0
 10
15.23
 20
4.6545
 30
0.0
 11
15.23
 21
3.6545
 31
0.0
  0
LINE
  8
0
 10
15.23
 20
3.6545
 30
0.0
 11
15.355
 21
3.6545
 31
0.0
  0
LINE
  8
0
 10
15.355
 20
5.7745
 30
0.0
 11
15.355
 21
4.7745
 31
0.0
  0
LINE
  8
0
 10
15.23
 20
5.7745
 30
0.0
 11
15.23
 21
4.7745
 31
0.0
  0
LINE
  8
0
 10
15.23
 20
4.6545
 30
0.0
 11
15.355
 21
4.6545
 31
0.0
  0
LINE
  8
0
 10
15.23
 20
4.7745
 30
0.0
 11
15.355
 21
4.7745
 31
0.0
  0
LINE
  8
0
 10
15.23
 20
5.7745
 30
0.0
 11
15.355
 21
5.7745
 31
0.0
  0
LINE
  8
0
 10
15.605
 20
4.6545
 30
0.0
 11
15.605
 21
3.6545
 31
0.0
  0
LINE
  8
0
 10
15.48
 20
4.6545
 30
0.0
 11
15.48
 21
3.6545
 31
0.0
  0
LINE
  8
0
 10
15.48
 20
3.6545
 30
0.0
 11
15.605
 21
3.6545
 31
0.0
  0
LINE
  8
0
 10
15.605
 20
5.7745
 30
0.0
 11
15.605
 21
4.7745
 31
0.0
  0
LINE
  8
0
 10
15.48
 20
5.7745
 30
0.0
 11
15.48
 21
4.7745
 31
0.0
  0
LINE
  8
0
 10
15.48
 20
4.6545
 30
0.0
 11
15.605
 21
4.6545
 31
0.0
  0
LINE
  8
0
 10
15.48
 20
4.7745
 30
0.0
 11
15.605
 21
4.7745
 31
0.0
  0
LINE
  8
0
 10
15.48
 20
5.7745
 30
0.0
 11
15.605
 21
5.7745
 31
0.0
  0
LINE
  8
0
 10
15.855
 20
4.6545
 30
0.0
 11
15.855
 21
3.6545
 31
0.0
  0
LINE
  8
0
 10
15.73
 20
4.6545
 30
0.0
 11
15.73
 21
3.6545
 31
0.0
  0
LINE
  8
0
 10
15.73
 20
3.6545
 30
0.0
 11
15.855
 21
3.6545
 31
0.0
  0
LINE
  8
0
 10
15.855
 20
5.7745
 30
0.0
 11
15.855
 21
4.7745
 31
0.0
  0
LINE
  8
0
 10
15.73
 20
5.7745
 30
0.0
 11
15.73
 21
4.7745
 31
0.0
  0
LINE
  8
0
 10
15.73
 20
4.6545
 30
0.0
 11
15.855
 21
4.6545
 31
0.0
  0
LINE
  8
0
 10
15.73
 20
4.7745
 30
0.0
 11
15.855
 21
4.7745
 31
0.0
  0
LINE
  8
0
 10
15.73
 20
5.7745
 30
0.0
 11
15.855
 21
5.7745
 31
0.0
  0
LINE
  8
0
 10
16.105
 20
4.6545
 30
0.0
 11
16.105
 21
3.6545
 31
0.0
  0
LINE
  8
0
 10
15.98
 20
4.6545
 30
0.0
 11
15.98
 21
3.6545
 31
0.0
  0
LINE
  8
0
 10
15.98
 20
3.6545
 30
0.0
 11
16.105
 21
3.6545
 31
0.0
  0
LINE
  8
0
 10
16.105
 20
5.7745
 30
0.0
 11
16.105
 21
4.7745
 31
0.0
  0
LINE
  8
0
 10
15.98
 20
5.7745
 30
0.0
 11
15.98
 21
4.7745
 31
0.0
  0
LINE
  8
0
 10
15.98
 20
4.6545
 30
0.0
 11
16.105
 21
4.6545
 31
0.0
  0
LINE
  8
0
 10
15.98
 20
4.7745
 30
0.0
 11
16.105
 21
4.7745
 31
0.0
  0
LINE
  8
0
 10
15.98
 20
5.7745
 30
0.0
 11
16.105
 21
5.7745
 31
0.0
  0
LINE
  8
0
 10
16.355
 20
4.6545
 30
0.0
 11
16.355
 21
3.6545
 31
0.0
  0
LINE
  8
0
 10
16.23
 20
4.6545
 30
0.0
 11
16.23
 21
3.6545
 31
0.0
  0
LINE
  8
0
 10
16.23
 20
3.6545
 30
0.0
 11
16.355
 21
3.6545
 31
0.0
  0
LINE
  8
0
 10
16.355
 20
5.7745
 30
0.0
 11
16.355
 21
4.7745
 31
0.0
  0
LINE
  8
0
 10
16.23
 20
5.7745
 30
0.0
 11
16.23
 21
4.7745
 31
0.0
  0
LINE
  8
0
 10
16.23
 20
4.6545
 30
0.0
 11
16.355
 21
4.6545
 31
0.0
  0
LINE
  8
0
 10
16.23
 20
4.7745
 30
0.0
 11
16.355
 21
4.7745
 31
0.0
  0
LINE
  8
0
 10
16.23
 20
5.7745
 30
0.0
 11
16.355
 21
5.7745
 31
0.0
  0
LINE
  8
0
 10
16.605
 20
4.6545
 30
0.0
 11
16.605
 21
3.6545
 31
0.0
  0
LINE
  8
0
 10
16.48
 20
4.6545
 30
0.0
 11
16.48
 21
3.6545
 31
0.0
  0
LINE
  8
0
 10
16.48
 20
3.6545
 30
0.0
 11
16.605
 21
3.6545
 31
0.0
  0
LINE
  8
0
 10
16.605
 20
5.7745
 30
0.0
 11
16.605
 21
4.7745
 31
0.0
  0
LINE
  8
0
 10
16.48
 20
5.7745
 30
0.0
 11
16.48
 21
4.7745
 31
0.0
  0
LINE
  8
0
 10
16.48
 20
4.6545
 30
0.0
 11
16.605
 21
4.6545
 31
0.0
  0
LINE
  8
0
 10
16.48
 20
4.7745
 30
0.0
 11
16.605
 21
4.7745
 31
0.0
  0
LINE
  8
0
 10
16.48
 20
5.7745
 30
0.0
 11
16.605
 21
5.7745
 31
0.0
  0
LINE
  8
0
 10
16.855
 20
4.6545
 30
0.0
 11
16.855
 21
3.6545
 31
0.0
  0
LINE
  8
0
 10
16.73
 20
4.6545
 30
0.0
 11
16.73
 21
3.6545
 31
0.0
  0
LINE
  8
0
 10
16.73
 20
3.6545
 30
0.0
 11
16.855
 21
3.6545
 31
0.0
  0
LINE
  8
0
 10
16.855
 20
5.7745
 30
0.0
 11
16.855
 21
4.7745
 31
0.0
  0
LINE
  8
0
 10
16.73
 20
5.7745
 30
0.0
 11
16.73
 21
4.7745
 31
0.0
  0
LINE
  8
0
 10
16.73
 20
4.6545
 30
0.0
 11
16.855
 21
4.6545
 31
0.0
  0
LINE
  8
0
 10
16.73
 20
4.7745
 30
0.0
 11
16.855
 21
4.7745
 31
0.0
  0
LINE
  8
0
 10
16.73
 20
5.7745
 30
0.0
 11
16.855
 21
5.7745
 31
0.0
  0
CIRCLE
  8
0
 10
20.83
 20
4.28
 30
0.0
 40
0.25
  0
CIRCLE
  8
0
 10
20.83
 20
4.28
 30
0.0
 40
0.175
  0
LINE
  8
0
 10
20.878
 20
4.4483
 30
0.0
 11
20.7167
 21
4.1466
 31
0.0
  0
LINE
  8
0
 10
20.9433
 20
4.4134
 30
0.0
 11
20.782
 21
4.1117
 31
0.0
  0
LINE
  8
0
 10
20.8417
 20
4.4546
 30
0.0
 11
20.6913
 21
4.1733
 31
0.0
  0
LINE
  8
0
 10
20.9687
 20
4.3867
 30
0.0
 11
20.8183
 21
4.1054
 31
0.0
  0
POLYLINE
  8
0
 66
     1
 10
0.0
 20
0.0
 30
0.0
 40
0.075
 41
0.075
  0
VERTEX
  8
0
 10
20.7404
 20
4.1124
 30
0.0
  0
VERTEX
  8
0
 10
20.7828
 20
4.1917
 30
0.0
  0
SEQEND
  8
0
  0
POLYLINE
  8
0
 66
     1
 10
0.0
 20
0.0
 30
0.0
 70
     1
 40
0.02
 41
0.02
  0
VERTEX
  8
0
 10
20.5
 20
4.28
 30
0.0
 42
1.0
  0
VERTEX
  8
0
 10
20.52
 20
4.28
 30
0.0
 42
1.0
  0
SEQEND
  8
0
  0
POLYLINE
  8
0
 66
     1
 10
0.0
 20
0.0
 30
0.0
 70
     1
 40
0.02
 41
0.02
  0
VERTEX
  8
0
 10
20.5112
 20
4.1946
 30
0.0
 42
1.0
  0
VERTEX
  8
0
 10
20.5306
 20
4.1998
 30
0.0
 42
1.0
  0
SEQEND
  8
0
  0
POLYLINE
  8
0
 66
     1
 10
0.0
 20
0.0
 30
0.0
 70
     1
 40
0.02
 41
0.02
  0
VERTEX
  8
0
 10
20.5442
 20
4.115
 30
0.0
 42
1.0
  0
VERTEX
  8
0
 10
20.5615
 20
4.125
 30
0.0
 42
1.0
  0
SEQEND
  8
0
  0
POLYLINE
  8
0
 66
     1
 10
0.0
 20
0.0
 30
0.0
 70
     1
 40
0.02
 41
0.02
  0
VERTEX
  8
0
 10
20.5967
 20
4.0467
 30
0.0
 42
1.0
  0
VERTEX
  8
0
 10
20.6108
 20
4.0608
 30
0.0
 42
1.0
  0
SEQEND
  8
0
  0
POLYLINE
  8
0
 66
     1
 10
0.0
 20
0.0
 30
0.0
 70
     1
 40
0.02
 41
0.02
  0
VERTEX
  8
0
 10
20.665
 20
3.9942
 30
0.0
 42
1.0
  0
VERTEX
  8
0
 10
20.675
 20
4.0115
 30
0.0
 42
1.0
  0
SEQEND
  8
0
  0
POLYLINE
  8
0
 66
     1
 10
0.0
 20
0.0
 30
0.0
 70
     1
 40
0.02
 41
0.02
  0
VERTEX
  8
0
 10
20.995
 20
3.9942
 30
0.0
 42
1.0
  0
VERTEX
  8
0
 10
20.985
 20
4.0115
 30
0.0
 42
1.0
  0
SEQEND
  8
0
  0
POLYLINE
  8
0
 66
     1
 10
0.0
 20
0.0
 30
0.0
 70
     1
 40
0.02
 41
0.02
  0
VERTEX
  8
0
 10
21.0633
 20
4.0467
 30
0.0
 42
1.0
  0
VERTEX
  8
0
 10
21.0492
 20
4.0608
 30
0.0
 42
1.0
  0
SEQEND
  8
0
  0
POLYLINE
  8
0
 66
     1
 10
0.0
 20
0.0
 30
0.0
 70
     1
 40
0.02
 41
0.02
  0
VERTEX
  8
0
 10
21.1158
 20
4.115
 30
0.0
 42
1.0
  0
VERTEX
  8
0
 10
21.0985
 20
4.125
 30
0.0
 42
1.0
  0
SEQEND
  8
0
  0
POLYLINE
  8
0
 66
     1
 10
0.0
 20
0.0
 30
0.0
 70
     1
 40
0.02
 41
0.02
  0
VERTEX
  8
0
 10
21.1488
 20
4.1946
 30
0.0
 42
1.0
  0
VERTEX
  8
0
 10
21.1294
 20
4.1998
 30
0.0
 42
1.0
  0
SEQEND
  8
0
  0
POLYLINE
  8
0
 66
     1
 10
0.0
 20
0.0
 30
0.0
 70
     1
 40
0.02
 41
0.02
  0
VERTEX
  8
0
 10
21.16
 20
4.28
 30
0.0
 42
1.0
  0
VERTEX
  8
0
 10
21.14
 20
4.28
 30
0.0
 42
1.0
  0
SEQEND
  8
0
  0
POLYLINE
  8
0
 66
     1
 10
0.0
 20
0.0
 30
0.0
 70
     1
 40
0.02
 41
0.02
  0
VERTEX
  8
0
 10
21.1488
 20
4.3654
 30
0.0
 42
1.0
  0
VERTEX
  8
0
 10
21.1294
 20
4.3602
 30
0.0
 42
1.0
  0
SEQEND
  8
0
  0
POLYLINE
  8
0
 66
     1
 10
0.0
 20
0.0
 30
0.0
 70
     1
 40
0.02
 41
0.02
  0
VERTEX
  8
0
 10
21.1158
 20
4.445
 30
0.0
 42
1.0
  0
VERTEX
  8
0
 10
21.0985
 20
4.435
 30
0.0
 42
1.0
  0
SEQEND
  8
0
  0
POLYLINE
  8
0
 66
     1
 10
0.0
 20
0.0
 30
0.0
 70
     1
 40
0.02
 41
0.02
  0
VERTEX
  8
0
 10
21.0633
 20
4.5133
 30
0.0
 42
1.0
  0
VERTEX
  8
0
 10
21.0492
 20
4.4992
 30
0.0
 42
1.0
  0
SEQEND
  8
0
  0
POLYLINE
  8
0
 66
     1
 10
0.0
 20
0.0
 30
0.0
 70
     1
 40
0.02
 41
0.02
  0
VERTEX
  8
0
 10
20.995
 20
4.5658
 30
0.0
 42
1.0
  0
VERTEX
  8
0
 10
20.985
 20
4.5485
 30
0.0
 42
1.0
  0
SEQEND
  8
0
  0
POLYLINE
  8
0
 66
     1
 10
0.0
 20
0.0
 30
0.0
 70
     1
 40
0.02
 41
0.02
  0
VERTEX
  8
0
 10
20.9154
 20
4.5988
 30
0.0
 42
1.0
  0
VERTEX
  8
0
 10
20.9102
 20
4.5794
 30
0.0
 42
1.0
  0
SEQEND
  8
0
  0
POLYLINE
  8
0
 66
     1
 10
0.0
 20
0.0
 30
0.0
 70
     1
 40
0.02
 41
0.02
  0
VERTEX
  8
0
 10
20.83
 20
4.61
 30
0.0
 42
1.0
  0
VERTEX
  8
0
 10
20.83
 20
4.59
 30
0.0
 42
1.0
  0
SEQEND
  8
0
  0
POLYLINE
  8
0
 66
     1
 10
0.0
 20
0.0
 30
0.0
 70
     1
 40
0.02
 41
0.02
  0
VERTEX
  8
0
 10
20.7446
 20
4.5988
 30
0.0
 42
1.0
  0
VERTEX
  8
0
 10
20.7498
 20
4.5794
 30
0.0
 42
1.0
  0
SEQEND
  8
0
  0
POLYLINE
  8
0
 66
     1
 10
0.0
 20
0.0
 30
0.0
 70
     1
 40
0.02
 41
0.02
  0
VERTEX
  8
0
 10
20.665
 20
4.5658
 30
0.0
 42
1.0
  0
VERTEX
  8
0
 10
20.675
 20
4.5485
 30
0.0
 42
1.0
  0
SEQEND
  8
0
  0
POLYLINE
  8
0
 66
     1
 10
0.0
 20
0.0
 30
0.0
 70
     1
 40
0.02
 41
0.02
  0
VERTEX
  8
0
 10
20.5967
 20
4.5133
 30
0.0
 42
1.0
  0
VERTEX
  8
0
 10
20.6108
 20
4.4992
 30
0.0
 42
1.0
  0
SEQEND
  8
0
  0
POLYLINE
  8
0
 66
     1
 10
0.0
 20
0.0
 30
0.0
 70
     1
 40
0.02
 41
0.02
  0
VERTEX
  8
0
 10
20.5442
 20
4.445
 30
0.0
 42
1.0
  0
VERTEX
  8
0
 10
20.5615
 20
4.435
 30
0.0
 42
1.0
  0
SEQEND
  8
0
  0
POLYLINE
  8
0
 66
     1
 10
0.0
 20
0.0
 30
0.0
 70
     1
 40
0.02
 41
0.02
  0
VERTEX
  8
0
 10
20.5112
 20
4.3654
 30
0.0
 42
1.0
  0
VERTEX
  8
0
 10
20.5306
 20
4.3602
 30
0.0
 42
1.0
  0
SEQEND
  8
0
  0
TEXT
  8
0
 10
21.1432
 20
4.0288
 30
0.0
 40
0.09
  1
2
  7
ROMAND
  0
TEXT
  8
0
 10
21.1922
 20
4.2406
 30
0.0
 40
0.09
  1
4
  7
ROMAND
  0
TEXT
  8
0
 10
21.1391
 20
4.4361
 30
0.0
 40
0.09
  1
6
  7
ROMAND
  0
TEXT
  8
0
 10
21.0046
 20
4.5909
 30
0.0
 40
0.09
  1
8
  7
ROMAND
  0
TEXT
  8
0
 10
20.7436
 20
4.652
 30
0.0
 40
0.09
  1
10
  7
ROMAND
  0
TEXT
  8
0
 10
20.4908
 20
4.6031
 30
0.0
 40
0.09
  1
12
  7
ROMAND
  0
TEXT
  8
0
 10
20.3637
 20
4.4402
 30
0.0
 40
0.09
  1
14
  7
ROMAND
  0
TEXT
  8
0
 10
20.3148
 20
4.2365
 30
0.0
 40
0.09
  1
18
  7
ROMAND
  0
TEXT
  8
0
 10
20.3637
 20
4.041
 30
0.0
 40
0.09
  1
24
  7
ROMAND
  0
TEXT
  8
0
 10
20.6281
 20
3.6541
 30
0.0
 40
0.09
  1
ATTEN
  7
ROMAND
  0
TEXT
  8
0
 10
21.1106
 20
3.8496
 30
0.0
 40
0.09
  1
0
  7
ROMAND
  0
TEXT
  8
0
 10
20.5315
 20
3.8618
 30
0.0
 40
0.09
  1
O
  7
ROMAND
  0
TEXT
  8
0
 10
20.5968
 20
3.8618
 30
0.0
 40
0.09
  1
0
  7
ROMAND
  0
POLYLINE
  8
0
 66
     1
 10
0.0
 20
0.0
 30
0.0
 70
     1
  0
VERTEX
  8
0
 10
21.7658
 20
4.7765
 30
0.0
  0
VERTEX
  8
0
 10
21.8016
 20
4.7145
 30
0.0
  0
VERTEX
  8
0
 10
21.7658
 20
4.6525
 30
0.0
  0
VERTEX
  8
0
 10
21.6942
 20
4.6525
 30
0.0
  0
VERTEX
  8
0
 10
21.6584
 20
4.7145
 30
0.0
  0
VERTEX
  8
0
 10
21.6942
 20
4.7765
 30
0.0
  0
SEQEND
  8
0
  0
CIRCLE
  8
0
 10
21.73
 20
4.7145
 30
0.0
 40
0.1325
  0
LINE
  8
0
 10
11.405
 20
9.129
 30
0.0
 11
11.405
 21
8.949
 31
0.0
  0
LINE
  8
0
 10
11.405
 20
8.949
 30
0.0
 11
12.215
 21
8.949
 31
0.0
  0
LINE
  8
0
 10
12.215
 20
9.129
 30
0.0
 11
12.215
 21
8.949
 31
0.0
  0
LINE
  8
0
 10
11.405
 20
9.129
 30
0.0
 11
12.215
 21
9.129
 31
0.0
  0
LINE
  8
0
 10
11.405
 20
9.249
 30
0.0
 11
12.215
 21
9.249
 31
0.0
  0
LINE
  8
0
 10
11.405
 20
9.429
 30
0.0
 11
12.215
 21
9.429
 31
0.0
  0
LINE
  8
0
 10
11.405
 20
9.429
 30
0.0
 11
11.405
 21
9.249
 31
0.0
  0
LINE
  8
0
 10
12.215
 20
9.429
 30
0.0
 11
12.215
 21
9.249
 31
0.0
  0
LINE
  8
0
 10
11.405
 20
9.549
 30
0.0
 11
12.215
 21
9.549
 31
0.0
  0
LINE
  8
0
 10
11.405
 20
9.729
 30
0.0
 11
12.215
 21
9.729
 31
0.0
  0
LINE
  8
0
 10
11.405
 20
9.729
 30
0.0
 11
11.405
 21
9.549
 31
0.0
  0
LINE
  8
0
 10
12.215
 20
9.729
 30
0.0
 11
12.215
 21
9.549
 31
0.0
  0
LINE
  8
0
 10
11.405
 20
9.849
 30
0.0
 11
12.215
 21
9.849
 31
0.0
  0
LINE
  8
0
 10
11.405
 20
10.029
 30
0.0
 11
12.215
 21
10.029
 31
0.0
  0
LINE
  8
0
 10
11.405
 20
10.029
 30
0.0
 11
11.405
 21
9.849
 31
0.0
  0
LINE
  8
0
 10
12.215
 20
10.029
 30
0.0
 11
12.215
 21
9.849
 31
0.0
  0
LINE
  8
0
 10
11.405
 20
10.149
 30
0.0
 11
12.215
 21
10.149
 31
0.0
  0
LINE
  8
0
 10
11.405
 20
10.329
 30
0.0
 11
12.215
 21
10.329
 31
0.0
  0
LINE
  8
0
 10
11.405
 20
10.329
 30
0.0
 11
11.405
 21
10.149
 31
0.0
  0
LINE
  8
0
 10
12.215
 20
10.329
 30
0.0
 11
12.215
 21
10.149
 31
0.0
  0
LINE
  8
0
 10
11.405
 20
10.449
 30
0.0
 11
12.215
 21
10.449
 31
0.0
  0
LINE
  8
0
 10
11.405
 20
10.629
 30
0.0
 11
12.215
 21
10.629
 31
0.0
  0
LINE
  8
0
 10
11.405
 20
10.629
 30
0.0
 11
11.405
 21
10.449
 31
0.0
  0
LINE
  8
0
 10
12.215
 20
10.629
 30
0.0
 11
12.215
 21
10.449
 31
0.0
  0
LINE
  8
0
 10
11.405
 20
10.749
 30
0.0
 11
12.215
 21
10.749
 31
0.0
  0
LINE
  8
0
 10
11.405
 20
10.929
 30
0.0
 11
12.215
 21
10.929
 31
0.0
  0
LINE
  8
0
 10
11.405
 20
10.929
 30
0.0
 11
11.405
 21
10.749
 31
0.0
  0
LINE
  8
0
 10
12.215
 20
10.929
 30
0.0
 11
12.215
 21
10.749
 31
0.0
  0
LINE
  8
0
 10
11.405
 20
11.049
 30
0.0
 11
12.215
 21
11.049
 31
0.0
  0
LINE
  8
0
 10
11.405
 20
11.229
 30
0.0
 11
12.215
 21
11.229
 31
0.0
  0
LINE
  8
0
 10
11.405
 20
11.229
 30
0.0
 11
11.405
 21
11.049
 31
0.0
  0
LINE
  8
0
 10
12.215
 20
11.229
 30
0.0
 11
12.215
 21
11.049
 31
0.0
  0
LINE
  8
0
 10
11.405
 20
11.349
 30
0.0
 11
12.215
 21
11.349
 31
0.0
  0
LINE
  8
0
 10
11.405
 20
11.529
 30
0.0
 11
12.215
 21
11.529
 31
0.0
  0
LINE
  8
0
 10
11.405
 20
11.529
 30
0.0
 11
11.405
 21
11.349
 31
0.0
  0
LINE
  8
0
 10
12.215
 20
11.529
 30
0.0
 11
12.215
 21
11.349
 31
0.0
  0
LINE
  8
0
 10
12.335
 20
8.949
 30
0.0
 11
13.145
 21
8.949
 31
0.0
  0
LINE
  8
0
 10
12.335
 20
9.129
 30
0.0
 11
13.145
 21
9.129
 31
0.0
  0
LINE
  8
0
 10
12.335
 20
9.129
 30
0.0
 11
12.335
 21
8.949
 31
0.0
  0
LINE
  8
0
 10
13.145
 20
9.129
 30
0.0
 11
13.145
 21
8.949
 31
0.0
  0
LINE
  8
0
 10
12.335
 20
9.249
 30
0.0
 11
13.145
 21
9.249
 31
0.0
  0
LINE
  8
0
 10
12.335
 20
9.429
 30
0.0
 11
13.145
 21
9.429
 31
0.0
  0
LINE
  8
0
 10
12.335
 20
9.429
 30
0.0
 11
12.335
 21
9.249
 31
0.0
  0
LINE
  8
0
 10
13.145
 20
9.429
 30
0.0
 11
13.145
 21
9.249
 31
0.0
  0
LINE
  8
0
 10
12.335
 20
9.549
 30
0.0
 11
13.145
 21
9.549
 31
0.0
  0
LINE
  8
0
 10
12.335
 20
9.729
 30
0.0
 11
13.145
 21
9.729
 31
0.0
  0
LINE
  8
0
 10
12.335
 20
9.729
 30
0.0
 11
12.335
 21
9.549
 31
0.0
  0
LINE
  8
0
 10
13.145
 20
9.729
 30
0.0
 11
13.145
 21
9.549
 31
0.0
  0
LINE
  8
0
 10
12.335
 20
9.849
 30
0.0
 11
13.145
 21
9.849
 31
0.0
  0
LINE
  8
0
 10
12.335
 20
10.029
 30
0.0
 11
13.145
 21
10.029
 31
0.0
  0
LINE
  8
0
 10
12.335
 20
10.029
 30
0.0
 11
12.335
 21
9.849
 31
0.0
  0
LINE
  8
0
 10
13.145
 20
10.029
 30
0.0
 11
13.145
 21
9.849
 31
0.0
  0
LINE
  8
0
 10
12.335
 20
10.149
 30
0.0
 11
13.145
 21
10.149
 31
0.0
  0
LINE
  8
0
 10
12.335
 20
10.329
 30
0.0
 11
13.145
 21
10.329
 31
0.0
  0
LINE
  8
0
 10
12.335
 20
10.329
 30
0.0
 11
12.335
 21
10.149
 31
0.0
  0
LINE
  8
0
 10
13.145
 20
10.329
 30
0.0
 11
13.145
 21
10.149
 31
0.0
  0
LINE
  8
0
 10
12.335
 20
10.449
 30
0.0
 11
13.145
 21
10.449
 31
0.0
  0
LINE
  8
0
 10
12.335
 20
10.629
 30
0.0
 11
13.145
 21
10.629
 31
0.0
  0
LINE
  8
0
 10
12.335
 20
10.629
 30
0.0
 11
12.335
 21
10.449
 31
0.0
  0
LINE
  8
0
 10
13.145
 20
10.629
 30
0.0
 11
13.145
 21
10.449
 31
0.0
  0
LINE
  8
0
 10
12.335
 20
10.749
 30
0.0
 11
13.145
 21
10.749
 31
0.0
  0
LINE
  8
0
 10
12.335
 20
10.929
 30
0.0
 11
13.145
 21
10.929
 31
0.0
  0
LINE
  8
0
 10
12.335
 20
10.929
 30
0.0
 11
12.335
 21
10.749
 31
0.0
  0
LINE
  8
0
 10
13.145
 20
10.929
 30
0.0
 11
13.145
 21
10.749
 31
0.0
  0
LINE
  8
0
 10
12.335
 20
11.049
 30
0.0
 11
13.145
 21
11.049
 31
0.0
  0
LINE
  8
0
 10
12.335
 20
11.229
 30
0.0
 11
13.145
 21
11.229
 31
0.0
  0
LINE
  8
0
 10
12.335
 20
11.229
 30
0.0
 11
12.335
 21
11.049
 31
0.0
  0
LINE
  8
0
 10
13.145
 20
11.229
 30
0.0
 11
13.145
 21
11.049
 31
0.0
  0
LINE
  8
0
 10
12.335
 20
11.349
 30
0.0
 11
13.145
 21
11.349
 31
0.0
  0
LINE
  8
0
 10
12.335
 20
11.529
 30
0.0
 11
13.145
 21
11.529
 31
0.0
  0
LINE
  8
0
 10
12.335
 20
11.529
 30
0.0
 11
12.335
 21
11.349
 31
0.0
  0
LINE
  8
0
 10
13.145
 20
11.529
 30
0.0
 11
13.145
 21
11.349
 31
0.0
  0
LINE
  8
0
 10
13.265
 20
8.949
 30
0.0
 11
14.075
 21
8.949
 31
0.0
  0
LINE
  8
0
 10
13.265
 20
9.129
 30
0.0
 11
14.075
 21
9.129
 31
0.0
  0
LINE
  8
0
 10
13.265
 20
9.129
 30
0.0
 11
13.265
 21
8.949
 31
0.0
  0
LINE
  8
0
 10
14.075
 20
9.129
 30
0.0
 11
14.075
 21
8.949
 31
0.0
  0
LINE
  8
0
 10
13.265
 20
9.249
 30
0.0
 11
14.075
 21
9.249
 31
0.0
  0
LINE
  8
0
 10
13.265
 20
9.429
 30
0.0
 11
14.075
 21
9.429
 31
0.0
  0
LINE
  8
0
 10
13.265
 20
9.429
 30
0.0
 11
13.265
 21
9.249
 31
0.0
  0
LINE
  8
0
 10
14.075
 20
9.429
 30
0.0
 11
14.075
 21
9.249
 31
0.0
  0
LINE
  8
0
 10
13.265
 20
9.549
 30
0.0
 11
14.075
 21
9.549
 31
0.0
  0
LINE
  8
0
 10
13.265
 20
9.729
 30
0.0
 11
14.075
 21
9.729
 31
0.0
  0
LINE
  8
0
 10
13.265
 20
9.729
 30
0.0
 11
13.265
 21
9.549
 31
0.0
  0
LINE
  8
0
 10
14.075
 20
9.729
 30
0.0
 11
14.075
 21
9.549
 31
0.0
  0
LINE
  8
0
 10
13.265
 20
9.849
 30
0.0
 11
14.075
 21
9.849
 31
0.0
  0
LINE
  8
0
 10
13.265
 20
10.029
 30
0.0
 11
14.075
 21
10.029
 31
0.0
  0
LINE
  8
0
 10
13.265
 20
10.029
 30
0.0
 11
13.265
 21
9.849
 31
0.0
  0
LINE
  8
0
 10
14.075
 20
10.029
 30
0.0
 11
14.075
 21
9.849
 31
0.0
  0
LINE
  8
0
 10
13.265
 20
10.149
 30
0.0
 11
14.075
 21
10.149
 31
0.0
  0
LINE
  8
0
 10
13.265
 20
10.329
 30
0.0
 11
14.075
 21
10.329
 31
0.0
  0
LINE
  8
0
 10
13.265
 20
10.329
 30
0.0
 11
13.265
 21
10.149
 31
0.0
  0
LINE
  8
0
 10
14.075
 20
10.329
 30
0.0
 11
14.075
 21
10.149
 31
0.0
  0
LINE
  8
0
 10
13.265
 20
10.449
 30
0.0
 11
14.075
 21
10.449
 31
0.0
  0
LINE
  8
0
 10
13.265
 20
10.629
 30
0.0
 11
14.075
 21
10.629
 31
0.0
  0
LINE
  8
0
 10
13.265
 20
10.629
 30
0.0
 11
13.265
 21
10.449
 31
0.0
  0
LINE
  8
0
 10
14.075
 20
10.629
 30
0.0
 11
14.075
 21
10.449
 31
0.0
  0
LINE
  8
0
 10
13.265
 20
10.749
 30
0.0
 11
14.075
 21
10.749
 31
0.0
  0
LINE
  8
0
 10
13.265
 20
10.929
 30
0.0
 11
14.075
 21
10.929
 31
0.0
  0
LINE
  8
0
 10
13.265
 20
10.929
 30
0.0
 11
13.265
 21
10.749
 31
0.0
  0
LINE
  8
0
 10
14.075
 20
10.929
 30
0.0
 11
14.075
 21
10.749
 31
0.0
  0
LINE
  8
0
 10
13.265
 20
11.049
 30
0.0
 11
14.075
 21
11.049
 31
0.0
  0
LINE
  8
0
 10
13.265
 20
11.229
 30
0.0
 11
14.075
 21
11.229
 31
0.0
  0
LINE
  8
0
 10
13.265
 20
11.229
 30
0.0
 11
13.265
 21
11.049
 31
0.0
  0
LINE
  8
0
 10
14.075
 20
11.229
 30
0.0
 11
14.075
 21
11.049
 31
0.0
  0
LINE
  8
0
 10
13.265
 20
11.349
 30
0.0
 11
14.075
 21
11.349
 31
0.0
  0
LINE
  8
0
 10
13.265
 20
11.529
 30
0.0
 11
14.075
 21
11.529
 31
0.0
  0
LINE
  8
0
 10
13.265
 20
11.529
 30
0.0
 11
13.265
 21
11.349
 31
0.0
  0
LINE
  8
0
 10
14.075
 20
11.529
 30
0.0
 11
14.075
 21
11.349
 31
0.0
  0
LINE
  8
0
 10
14.195
 20
8.949
 30
0.0
 11
15.005
 21
8.949
 31
0.0
  0
LINE
  8
0
 10
14.195
 20
9.129
 30
0.0
 11
15.005
 21
9.129
 31
0.0
  0
LINE
  8
0
 10
14.195
 20
9.129
 30
0.0
 11
14.195
 21
8.949
 31
0.0
  0
LINE
  8
0
 10
15.005
 20
9.129
 30
0.0
 11
15.005
 21
8.949
 31
0.0
  0
LINE
  8
0
 10
14.195
 20
9.249
 30
0.0
 11
15.005
 21
9.249
 31
0.0
  0
LINE
  8
0
 10
14.195
 20
9.429
 30
0.0
 11
15.005
 21
9.429
 31
0.0
  0
LINE
  8
0
 10
14.195
 20
9.429
 30
0.0
 11
14.195
 21
9.249
 31
0.0
  0
LINE
  8
0
 10
15.005
 20
9.429
 30
0.0
 11
15.005
 21
9.249
 31
0.0
  0
LINE
  8
0
 10
14.195
 20
9.549
 30
0.0
 11
15.005
 21
9.549
 31
0.0
  0
LINE
  8
0
 10
14.195
 20
9.729
 30
0.0
 11
15.005
 21
9.729
 31
0.0
  0
LINE
  8
0
 10
14.195
 20
9.729
 30
0.0
 11
14.195
 21
9.549
 31
0.0
  0
LINE
  8
0
 10
15.005
 20
9.729
 30
0.0
 11
15.005
 21
9.549
 31
0.0
  0
LINE
  8
0
 10
14.195
 20
9.849
 30
0.0
 11
15.005
 21
9.849
 31
0.0
  0
LINE
  8
0
 10
14.195
 20
10.029
 30
0.0
 11
15.005
 21
10.029
 31
0.0
  0
LINE
  8
0
 10
14.195
 20
10.029
 30
0.0
 11
14.195
 21
9.849
 31
0.0
  0
LINE
  8
0
 10
15.005
 20
10.029
 30
0.0
 11
15.005
 21
9.849
 31
0.0
  0
LINE
  8
0
 10
14.195
 20
10.149
 30
0.0
 11
15.005
 21
10.149
 31
0.0
  0
LINE
  8
0
 10
14.195
 20
10.329
 30
0.0
 11
15.005
 21
10.329
 31
0.0
  0
LINE
  8
0
 10
14.195
 20
10.329
 30
0.0
 11
14.195
 21
10.149
 31
0.0
  0
LINE
  8
0
 10
15.005
 20
10.329
 30
0.0
 11
15.005
 21
10.149
 31
0.0
  0
LINE
  8
0
 10
14.195
 20
10.449
 30
0.0
 11
15.005
 21
10.449
 31
0.0
  0
LINE
  8
0
 10
14.195
 20
10.629
 30
0.0
 11
15.005
 21
10.629
 31
0.0
  0
LINE
  8
0
 10
14.195
 20
10.629
 30
0.0
 11
14.195
 21
10.449
 31
0.0
  0
LINE
  8
0
 10
15.005
 20
10.629
 30
0.0
 11
15.005
 21
10.449
 31
0.0
  0
LINE
  8
0
 10
14.195
 20
10.749
 30
0.0
 11
15.005
 21
10.749
 31
0.0
  0
LINE
  8
0
 10
14.195
 20
10.929
 30
0.0
 11
15.005
 21
10.929
 31
0.0
  0
LINE
  8
0
 10
14.195
 20
10.929
 30
0.0
 11
14.195
 21
10.749
 31
0.0
  0
LINE
  8
0
 10
15.005
 20
10.929
 30
0.0
 11
15.005
 21
10.749
 31
0.0
  0
LINE
  8
0
 10
14.195
 20
11.049
 30
0.0
 11
15.005
 21
11.049
 31
0.0
  0
LINE
  8
0
 10
14.195
 20
11.229
 30
0.0
 11
15.005
 21
11.229
 31
0.0
  0
LINE
  8
0
 10
14.195
 20
11.229
 30
0.0
 11
14.195
 21
11.049
 31
0.0
  0
LINE
  8
0
 10
15.005
 20
11.229
 30
0.0
 11
15.005
 21
11.049
 31
0.0
  0
LINE
  8
0
 10
14.195
 20
11.349
 30
0.0
 11
15.005
 21
11.349
 31
0.0
  0
LINE
  8
0
 10
14.195
 20
11.529
 30
0.0
 11
15.005
 21
11.529
 31
0.0
  0
LINE
  8
0
 10
14.195
 20
11.529
 30
0.0
 11
14.195
 21
11.349
 31
0.0
  0
LINE
  8
0
 10
15.005
 20
11.529
 30
0.0
 11
15.005
 21
11.349
 31
0.0
  0
LINE
  8
0
 10
15.125
 20
8.949
 30
0.0
 11
15.935
 21
8.949
 31
0.0
  0
LINE
  8
0
 10
15.125
 20
9.129
 30
0.0
 11
15.935
 21
9.129
 31
0.0
  0
LINE
  8
0
 10
15.125
 20
9.129
 30
0.0
 11
15.125
 21
8.949
 31
0.0
  0
LINE
  8
0
 10
15.935
 20
9.129
 30
0.0
 11
15.935
 21
8.949
 31
0.0
  0
LINE
  8
0
 10
15.125
 20
9.249
 30
0.0
 11
15.935
 21
9.249
 31
0.0
  0
LINE
  8
0
 10
15.125
 20
9.429
 30
0.0
 11
15.935
 21
9.429
 31
0.0
  0
LINE
  8
0
 10
15.125
 20
9.429
 30
0.0
 11
15.125
 21
9.249
 31
0.0
  0
LINE
  8
0
 10
15.935
 20
9.429
 30
0.0
 11
15.935
 21
9.249
 31
0.0
  0
LINE
  8
0
 10
15.125
 20
9.549
 30
0.0
 11
15.935
 21
9.549
 31
0.0
  0
LINE
  8
0
 10
15.125
 20
9.729
 30
0.0
 11
15.935
 21
9.729
 31
0.0
  0
LINE
  8
0
 10
15.125
 20
9.729
 30
0.0
 11
15.125
 21
9.549
 31
0.0
  0
LINE
  8
0
 10
15.935
 20
9.729
 30
0.0
 11
15.935
 21
9.549
 31
0.0
  0
LINE
  8
0
 10
15.125
 20
9.849
 30
0.0
 11
15.935
 21
9.849
 31
0.0
  0
LINE
  8
0
 10
15.125
 20
10.029
 30
0.0
 11
15.935
 21
10.029
 31
0.0
  0
LINE
  8
0
 10
15.125
 20
10.029
 30
0.0
 11
15.125
 21
9.849
 31
0.0
  0
LINE
  8
0
 10
15.935
 20
10.029
 30
0.0
 11
15.935
 21
9.849
 31
0.0
  0
LINE
  8
0
 10
15.125
 20
10.149
 30
0.0
 11
15.935
 21
10.149
 31
0.0
  0
LINE
  8
0
 10
15.125
 20
10.329
 30
0.0
 11
15.935
 21
10.329
 31
0.0
  0
LINE
  8
0
 10
15.125
 20
10.329
 30
0.0
 11
15.125
 21
10.149
 31
0.0
  0
LINE
  8
0
 10
15.935
 20
10.329
 30
0.0
 11
15.935
 21
10.149
 31
0.0
  0
LINE
  8
0
 10
15.125
 20
10.449
 30
0.0
 11
15.935
 21
10.449
 31
0.0
  0
LINE
  8
0
 10
15.125
 20
10.629
 30
0.0
 11
15.935
 21
10.629
 31
0.0
  0
LINE
  8
0
 10
15.125
 20
10.629
 30
0.0
 11
15.125
 21
10.449
 31
0.0
  0
LINE
  8
0
 10
15.935
 20
10.629
 30
0.0
 11
15.935
 21
10.449
 31
0.0
  0
LINE
  8
0
 10
15.125
 20
10.749
 30
0.0
 11
15.935
 21
10.749
 31
0.0
  0
LINE
  8
0
 10
15.125
 20
10.929
 30
0.0
 11
15.935
 21
10.929
 31
0.0
  0
LINE
  8
0
 10
15.125
 20
10.929
 30
0.0
 11
15.125
 21
10.749
 31
0.0
  0
LINE
  8
0
 10
15.935
 20
10.929
 30
0.0
 11
15.935
 21
10.749
 31
0.0
  0
LINE
  8
0
 10
15.125
 20
11.049
 30
0.0
 11
15.935
 21
11.049
 31
0.0
  0
LINE
  8
0
 10
15.125
 20
11.229
 30
0.0
 11
15.935
 21
11.229
 31
0.0
  0
LINE
  8
0
 10
15.125
 20
11.229
 30
0.0
 11
15.125
 21
11.049
 31
0.0
  0
LINE
  8
0
 10
15.935
 20
11.229
 30
0.0
 11
15.935
 21
11.049
 31
0.0
  0
LINE
  8
0
 10
15.125
 20
11.349
 30
0.0
 11
15.935
 21
11.349
 31
0.0
  0
LINE
  8
0
 10
15.125
 20
11.529
 30
0.0
 11
15.935
 21
11.529
 31
0.0
  0
LINE
  8
0
 10
15.125
 20
11.529
 30
0.0
 11
15.125
 21
11.349
 31
0.0
  0
LINE
  8
0
 10
15.935
 20
11.529
 30
0.0
 11
15.935
 21
11.349
 31
0.0
  0
LINE
  8
0
 10
21.4953
 20
9.911
 30
0.0
 11
21.4953
 21
9.847
 31
0.0
  0
LINE
  8
0
 10
21.1703
 20
9.884
 30
0.0
 11
21.1703
 21
9.324
 31
0.0
  0
LINE
  8
0
 10
21.8203
 20
10.024
 30
0.0
 11
21.8203
 21
9.184
 31
0.0
  0
LINE
  8
0
 10
21.7603
 20
10.084
 30
0.0
 11
21.3703
 21
10.084
 31
0.0
  0
LINE
  8
0
 10
21.7603
 20
9.124
 30
0.0
 11
21.3703
 21
9.124
 31
0.0
  0
LINE
  8
0
 10
21.7603
 20
10.154
 30
0.0
 11
21.2303
 21
10.154
 31
0.0
  0
LINE
  8
0
 10
21.7603
 20
9.054
 30
0.0
 11
21.2303
 21
9.054
 31
0.0
  0
LINE
  8
0
 10
21.1053
 20
10.029
 30
0.0
 11
21.1053
 21
9.179
 31
0.0
  0
LINE
  8
0
 10
21.8853
 20
10.029
 30
0.0
 11
21.8853
 21
9.179
 31
0.0
  0
LINE
  8
0
 10
21.0553
 20
10.304
 30
0.0
 11
21.0553
 21
8.904
 31
0.0
  0
LINE
  8
0
 10
21.9353
 20
10.304
 30
0.0
 11
21.9353
 21
8.904
 31
0.0
  0
LINE
  8
0
 10
21.0553
 20
10.304
 30
0.0
 11
21.4205
 21
10.514
 31
0.0
  0
LINE
  8
0
 10
21.9353
 20
10.304
 30
0.0
 11
21.57
 21
10.514
 31
0.0
  0
LINE
  8
0
 10
21.0553
 20
8.904
 30
0.0
 11
21.4205
 21
8.694
 31
0.0
  0
LINE
  8
0
 10
21.9353
 20
8.904
 30
0.0
 11
21.57
 21
8.694
 31
0.0
  0
ARC
  8
0
 10
21.7603
 20
10.029
 30
0.0
 40
0.125
 50
0.0
 51
90.0
  0
ARC
  8
0
 10
21.2303
 20
10.029
 30
0.0
 40
0.125
 50
90.0
 51
180.0
  0
ARC
  8
0
 10
21.2303
 20
9.179
 30
0.0
 40
0.125
 50
180.0
 51
270.0
  0
ARC
  8
0
 10
21.7603
 20
9.179
 30
0.0
 40
0.125
 50
270.0
 51
0.0
  0
ARC
  8
0
 10
21.7603
 20
9.184
 30
0.0
 40
0.06
 50
270.0
 51
0.0
  0
ARC
  8
0
 10
21.7603
 20
10.024
 30
0.0
 40
0.06
 50
0.0
 51
90.0
  0
LINE
  8
0
 10
21.3703
 20
10.084
 30
0.0
 11
21.1703
 21
9.884
 31
0.0
  0
LINE
  8
0
 10
21.1703
 20
9.324
 30
0.0
 11
21.3703
 21
9.124
 31
0.0
  0
LINE
  8
0
 10
21.6753
 20
9.911
 30
0.0
 11
21.6753
 21
9.847
 31
0.0
  0
LINE
  8
0
 10
21.6433
 20
9.879
 30
0.0
 11
21.5273
 21
9.879
 31
0.0
  0
LINE
  8
0
 10
21.6753
 20
9.911
 30
0.0
 11
21.4953
 21
9.911
 31
0.0
  0
LINE
  8
0
 10
21.6753
 20
9.847
 30
0.0
 11
21.4953
 21
9.847
 31
0.0
  0
LINE
  8
0
 10
21.6753
 20
9.911
 30
0.0
 11
21.6433
 21
9.879
 31
0.0
  0
LINE
  8
0
 10
21.6433
 20
9.879
 30
0.0
 11
21.6753
 21
9.847
 31
0.0
  0
LINE
  8
0
 10
21.4953
 20
9.911
 30
0.0
 11
21.5273
 21
9.879
 31
0.0
  0
LINE
  8
0
 10
21.5273
 20
9.879
 30
0.0
 11
21.4953
 21
9.847
 31
0.0
  0
LINE
  8
0
 10
21.6433
 20
9.329
 30
0.0
 11
21.5273
 21
9.329
 31
0.0
  0
LINE
  8
0
 10
21.4953
 20
9.297
 30
0.0
 11
21.4953
 21
9.361
 31
0.0
  0
LINE
  8
0
 10
21.6753
 20
9.297
 30
0.0
 11
21.4953
 21
9.297
 31
0.0
  0
LINE
  8
0
 10
21.6753
 20
9.361
 30
0.0
 11
21.4953
 21
9.361
 31
0.0
  0
LINE
  8
0
 10
21.6753
 20
9.297
 30
0.0
 11
21.6753
 21
9.361
 31
0.0
  0
LINE
  8
0
 10
21.5273
 20
9.329
 30
0.0
 11
21.4953
 21
9.361
 31
0.0
  0
LINE
  8
0
 10
21.4953
 20
9.297
 30
0.0
 11
21.5273
 21
9.329
 31
0.0
  0
LINE
  8
0
 10
21.6433
 20
9.329
 30
0.0
 11
21.6753
 21
9.361
 31
0.0
  0
LINE
  8
0
 10
21.6753
 20
9.297
 30
0.0
 11
21.6433
 21
9.329
 31
0.0
  0
LINE
  8
0
 10
21.4633
 20
9.604
 30
0.0
 11
21.3473
 21
9.604
 31
0.0
  0
LINE
  8
0
 10
21.3153
 20
9.636
 30
0.0
 11
21.3153
 21
9.572
 31
0.0
  0
LINE
  8
0
 10
21.4953
 20
9.636
 30
0.0
 11
21.3153
 21
9.636
 31
0.0
  0
LINE
  8
0
 10
21.4953
 20
9.572
 30
0.0
 11
21.3153
 21
9.572
 31
0.0
  0
LINE
  8
0
 10
21.4953
 20
9.636
 30
0.0
 11
21.4953
 21
9.572
 31
0.0
  0
LINE
  8
0
 10
21.3473
 20
9.604
 30
0.0
 11
21.3153
 21
9.572
 31
0.0
  0
LINE
  8
0
 10
21.3153
 20
9.636
 30
0.0
 11
21.3473
 21
9.604
 31
0.0
  0
LINE
  8
0
 10
21.4633
 20
9.604
 30
0.0
 11
21.4953
 21
9.572
 31
0.0
  0
LINE
  8
0
 10
21.4953
 20
9.636
 30
0.0
 11
21.4633
 21
9.604
 31
0.0
  0
ARC
  8
0
 10
20.567
 20
8.923
 30
0.0
 40
0.105
 50
180.823
 51
269.177
  0
ARC
  8
0
 10
20.319
 20
8.923
 30
0.0
 40
0.105
 50
270.823
 51
359.177
  0
CIRCLE
  8
0
 10
20.443
 20
8.799
 30
0.0
 40
0.15
  0
ARC
  8
0
 10
20.443
 20
8.799
 30
0.0
 40
0.124
 50
0.0
 51
8.937
  0
ARC
  8
0
 10
20.443
 20
8.799
 30
0.0
 40
0.124
 50
171.063
 51
180.0
  0
ARC
  8
0
 10
20.443
 20
8.799
 30
0.0
 40
0.124
 50
270.0
 51
278.937
  0
ARC
  8
0
 10
20.443
 20
8.799
 30
0.0
 40
0.124
 50
261.063
 51
270.0
  0
ARC
  8
0
 10
20.319
 20
8.676
 30
0.0
 40
0.105
 50
0.823
 51
89.177
  0
ARC
  8
0
 10
20.443
 20
8.799
 30
0.0
 40
0.124
 50
180.0
 51
188.937
  0
ARC
  8
0
 10
20.443
 20
8.799
 30
0.0
 40
0.124
 50
351.063
 51
0.0
  0
ARC
  8
0
 10
20.567
 20
8.676
 30
0.0
 40
0.105
 50
90.823
 51
179.177
  0
ARC
  8
0
 10
20.443
 20
8.799
 30
0.0
 40
0.124
 50
81.063
 51
90.0
  0
ARC
  8
0
 10
20.443
 20
8.799
 30
0.0
 40
0.124
 50
90.0
 51
98.937
  0
ARC
  8
0
 10
15.717
 20
8.923
 30
0.0
 40
0.105
 50
180.823
 51
269.177
  0
ARC
  8
0
 10
15.469
 20
8.923
 30
0.0
 40
0.105
 50
270.823
 51
359.177
  0
CIRCLE
  8
0
 10
15.593
 20
8.799
 30
0.0
 40
0.15
  0
ARC
  8
0
 10
15.593
 20
8.799
 30
0.0
 40
0.124
 50
0.0
 51
8.937
  0
ARC
  8
0
 10
15.593
 20
8.799
 30
0.0
 40
0.124
 50
171.063
 51
180.0
  0
ARC
  8
0
 10
15.593
 20
8.799
 30
0.0
 40
0.124
 50
270.0
 51
278.937
  0
ARC
  8
0
 10
15.593
 20
8.799
 30
0.0
 40
0.124
 50
261.063
 51
270.0
  0
ARC
  8
0
 10
15.469
 20
8.676
 30
0.0
 40
0.105
 50
0.823
 51
89.177
  0
ARC
  8
0
 10
15.593
 20
8.799
 30
0.0
 40
0.124
 50
180.0
 51
188.937
  0
ARC
  8
0
 10
15.593
 20
8.799
 30
0.0
 40
0.124
 50
351.063
 51
0.0
  0
ARC
  8
0
 10
15.717
 20
8.676
 30
0.0
 40
0.105
 50
90.823
 51
179.177
  0
ARC
  8
0
 10
15.593
 20
8.799
 30
0.0
 40
0.124
 50
81.063
 51
90.0
  0
ARC
  8
0
 10
15.593
 20
8.799
 30
0.0
 40
0.124
 50
90.0
 51
98.937
  0
ARC
  8
0
 10
11.842
 20
8.923
 30
0.0
 40
0.105
 50
180.823
 51
269.177
  0
ARC
  8
0
 10
11.594
 20
8.923
 30
0.0
 40
0.105
 50
270.823
 51
359.177
  0
CIRCLE
  8
0
 10
11.718
 20
8.799
 30
0.0
 40
0.15
  0
ARC
  8
0
 10
11.718
 20
8.799
 30
0.0
 40
0.124
 50
0.0
 51
8.937
  0
ARC
  8
0
 10
11.718
 20
8.799
 30
0.0
 40
0.124
 50
171.063
 51
180.0
  0
ARC
  8
0
 10
11.718
 20
8.799
 30
0.0
 40
0.124
 50
270.0
 51
278.937
  0
ARC
  8
0
 10
11.718
 20
8.799
 30
0.0
 40
0.124
 50
261.063
 51
270.0
  0
ARC
  8
0
 10
11.594
 20
8.676
 30
0.0
 40
0.105
 50
0.823
 51
89.177
  0
ARC
  8
0
 10
11.718
 20
8.799
 30
0.0
 40
0.124
 50
180.0
 51
188.937
  0
ARC
  8
0
 10
11.718
 20
8.799
 30
0.0
 40
0.124
 50
351.063
 51
0.0
  0
ARC
  8
0
 10
11.842
 20
8.676
 30
0.0
 40
0.105
 50
90.823
 51
179.177
  0
ARC
  8
0
 10
11.718
 20
8.799
 30
0.0
 40
0.124
 50
81.063
 51
90.0
  0
ARC
  8
0
 10
11.718
 20
8.799
 30
0.0
 40
0.124
 50
90.0
 51
98.937
  0
ARC
  8
0
 10
8.657
 20
8.923
 30
0.0
 40
0.105
 50
180.823
 51
269.177
  0
ARC
  8
0
 10
8.409
 20
8.923
 30
0.0
 40
0.105
 50
270.823
 51
359.177
  0
CIRCLE
  8
0
 10
8.533
 20
8.799
 30
0.0
 40
0.15
  0
ARC
  8
0
 10
8.533
 20
8.799
 30
0.0
 40
0.124
 50
0.0
 51
8.937
  0
ARC
  8
0
 10
8.533
 20
8.799
 30
0.0
 40
0.124
 50
171.063
 51
180.0
  0
ARC
  8
0
 10
8.533
 20
8.799
 30
0.0
 40
0.124
 50
270.0
 51
278.937
  0
ARC
  8
0
 10
8.533
 20
8.799
 30
0.0
 40
0.124
 50
261.063
 51
270.0
  0
ARC
  8
0
 10
8.409
 20
8.676
 30
0.0
 40
0.105
 50
0.823
 51
89.177
  0
ARC
  8
0
 10
8.533
 20
8.799
 30
0.0
 40
0.124
 50
180.0
 51
188.937
  0
ARC
  8
0
 10
8.533
 20
8.799
 30
0.0
 40
0.124
 50
351.063
 51
0.0
  0
ARC
  8
0
 10
8.657
 20
8.676
 30
0.0
 40
0.105
 50
90.823
 51
179.177
  0
ARC
  8
0
 10
8.533
 20
8.799
 30
0.0
 40
0.124
 50
81.063
 51
90.0
  0
ARC
  8
0
 10
8.533
 20
8.799
 30
0.0
 40
0.124
 50
90.0
 51
98.937
  0
TEXT
  8
0
 10
18.2947
 20
9.6038
 30
0.0
 40
0.06
  1
Pat. #5767744
  7
ROMANS
  0
LINE
  8
0
 10
5.867
 20
9.199
 30
0.0
 11
5.867
 21
9.649
 31
0.0
  0
LINE
  8
0
 10
5.817
 20
9.5312
 30
0.0
 11
5.817
 21
9.2112
 31
0.0
  0
LINE
  8
0
 10
5.167
 20
9.199
 30
0.0
 11
5.167
 21
9.649
 31
0.0
  0
LINE
  8
0
 10
5.217
 20
9.5312
 30
0.0
 11
5.217
 21
9.2112
 31
0.0
  0
LINE
  8
0
 10
5.5776
 20
9.4808
 30
0.0
 11
5.6564
 21
9.4808
 31
0.0
  0
LINE
  8
0
 10
5.167
 20
9.199
 30
0.0
 11
5.867
 21
9.199
 31
0.0
  0
LINE
  8
0
 10
5.217
 20
9.2112
 30
0.0
 11
5.817
 21
9.2112
 31
0.0
  0
ARC
  8
0
 10
5.517
 20
9.3712
 30
0.0
 40
0.125
 50
230.0382
 51
309.9618
  0
LINE
  8
0
 10
5.7776
 20
9.4808
 30
0.0
 11
5.817
 21
9.4808
 31
0.0
  0
LINE
  8
0
 10
5.6564
 20
9.4962
 30
0.0
 11
5.7776
 21
9.4962
 31
0.0
  0
LINE
  8
0
 10
5.7776
 20
9.4808
 30
0.0
 11
5.7776
 21
9.4962
 31
0.0
  0
LINE
  8
0
 10
5.6564
 20
9.4808
 30
0.0
 11
5.6564
 21
9.4962
 31
0.0
  0
ARC
  8
0
 10
5.717
 20
9.3712
 30
0.0
 40
0.125
 50
230.0382
 51
309.9618
  0
LINE
  8
0
 10
5.5973
 20
9.2754
 30
0.0
 11
5.6367
 21
9.2754
 31
0.0
  0
LINE
  8
0
 10
5.7973
 20
9.2754
 30
0.0
 11
5.817
 21
9.2754
 31
0.0
  0
POLYLINE
  8
0
 66
     1
 10
0.0
 20
0.0
 30
0.0
 70
     1
  0
VERTEX
  8
0
 10
5.7357
 20
9.3525
 30
0.0
  0
VERTEX
  8
0
 10
5.7357
 20
9.3899
 30
0.0
  0
VERTEX
  8
0
 10
5.6983
 20
9.3899
 30
0.0
  0
VERTEX
  8
0
 10
5.6983
 20
9.3525
 30
0.0
  0
SEQEND
  8
0
  0
LINE
  8
0
 10
5.5776
 20
9.4808
 30
0.0
 11
5.5776
 21
9.4962
 31
0.0
  0
LINE
  8
0
 10
5.3776
 20
9.4808
 30
0.0
 11
5.4564
 21
9.4808
 31
0.0
  0
LINE
  8
0
 10
5.217
 20
9.4808
 30
0.0
 11
5.2564
 21
9.4808
 31
0.0
  0
LINE
  8
0
 10
5.2564
 20
9.4962
 30
0.0
 11
5.3776
 21
9.4962
 31
0.0
  0
LINE
  8
0
 10
5.2564
 20
9.4808
 30
0.0
 11
5.2564
 21
9.4962
 31
0.0
  0
LINE
  8
0
 10
5.3776
 20
9.4808
 30
0.0
 11
5.3776
 21
9.4962
 31
0.0
  0
LINE
  8
0
 10
5.4564
 20
9.4808
 30
0.0
 11
5.4564
 21
9.4962
 31
0.0
  0
ARC
  8
0
 10
5.317
 20
9.3712
 30
0.0
 40
0.125
 50
230.0382
 51
309.9618
  0
LINE
  8
0
 10
5.217
 20
9.2754
 30
0.0
 11
5.2367
 21
9.2754
 31
0.0
  0
LINE
  8
0
 10
5.3973
 20
9.2754
 30
0.0
 11
5.4367
 21
9.2754
 31
0.0
  0
POLYLINE
  8
0
 66
     1
 10
0.0
 20
0.0
 30
0.0
 70
     1
  0
VERTEX
  8
0
 10
5.3357
 20
9.3525
 30
0.0
  0
VERTEX
  8
0
 10
5.3357
 20
9.3899
 30
0.0
  0
VERTEX
  8
0
 10
5.2983
 20
9.3899
 30
0.0
  0
VERTEX
  8
0
 10
5.2983
 20
9.3525
 30
0.0
  0
SEQEND
  8
0
  0
LINE
  8
0
 10
5.4564
 20
9.4962
 30
0.0
 11
5.5776
 21
9.4962
 31
0.0
  0
POLYLINE
  8
0
 66
     1
 10
0.0
 20
0.0
 30
0.0
 70
     1
  0
VERTEX
  8
0
 10
5.5357
 20
9.3525
 30
0.0
  0
VERTEX
  8
0
 10
5.5357
 20
9.3899
 30
0.0
  0
VERTEX
  8
0
 10
5.4983
 20
9.3899
 30
0.0
  0
VERTEX
  8
0
 10
5.4983
 20
9.3525
 30
0.0
  0
SEQEND
  8
0
  0
LINE
  8
0
 10
5.167
 20
9.649
 30
0.0
 11
5.867
 21
9.649
 31
0.0
  0
LINE
  8
0
 10
5.217
 20
9.5312
 30
0.0
 11
5.817
 21
9.5312
 31
0.0
  0
LINE
  8
0
 10
5.217
 20
9.6679
 30
0.0
 11
5.817
 21
9.6679
 31
0.0
  0
LINE
  8
0
 10
5.217
 20
9.8679
 30
0.0
 11
5.817
 21
9.8679
 31
0.0
  0
LINE
  8
0
 10
5.817
 20
9.6679
 30
0.0
 11
5.817
 21
9.8679
 31
0.0
  0
LINE
  8
0
 10
5.617
 20
9.6679
 30
0.0
 11
5.617
 21
9.8679
 31
0.0
  0
LINE
  8
0
 10
5.417
 20
9.6679
 30
0.0
 11
5.417
 21
9.8679
 31
0.0
  0
LINE
  8
0
 10
5.217
 20
9.6679
 30
0.0
 11
5.217
 21
9.8679
 31
0.0
  0
POLYLINE
  8
0
 66
     1
 10
0.0
 20
0.0
 30
0.0
 40
0.024
 41
0.024
  0
VERTEX
  8
0
 10
5.3165
 20
9.8289
 30
0.0
  0
VERTEX
  8
0
 10
5.3165
 20
9.7059
 30
0.0
  0
SEQEND
  8
0
  0
POLYLINE
  8
0
 66
     1
 10
0.0
 20
0.0
 30
0.0
 40
0.024
 41
0.024
  0
VERTEX
  8
0
 10
5.2555
 20
9.7679
 30
0.0
  0
VERTEX
  8
0
 10
5.3785
 20
9.7679
 30
0.0
  0
SEQEND
  8
0
  0
POLYLINE
  8
0
 66
     1
 10
0.0
 20
0.0
 30
0.0
 40
0.024
 41
0.024
  0
VERTEX
  8
0
 10
5.517
 20
9.8294
 30
0.0
  0
VERTEX
  8
0
 10
5.517
 20
9.7064
 30
0.0
  0
SEQEND
  8
0
  0
ARC
  8
0
 10
5.9404
 20
9.299
 30
0.0
 40
0.082
 50
312.79
 51
47.21
  0
ARC
  8
0
 10
6.1984
 20
9.299
 30
0.0
 40
0.082
 50
132.79
 51
227.21
  0
CIRCLE
  8
0
 10
6.0694
 20
9.299
 30
0.0
 40
0.11
  0
ARC
  8
0
 10
6.0694
 20
9.299
 30
0.0
 40
0.095
 50
219.092
 51
230.908
  0
ARC
  8
0
 10
6.0694
 20
9.299
 30
0.0
 40
0.095
 50
309.092
 51
320.908
  0
ARC
  8
0
 10
6.0694
 20
9.17
 30
0.0
 40
0.082
 50
42.79
 51
137.21
  0
ARC
  8
0
 10
6.0694
 20
9.299
 30
0.0
 40
0.095
 50
129.092
 51
140.908
  0
ARC
  8
0
 10
6.0694
 20
9.299
 30
0.0
 40
0.095
 50
39.092
 51
50.908
  0
ARC
  8
0
 10
6.0694
 20
9.428
 30
0.0
 40
0.082
 50
222.79
 51
317.21
  0
CIRCLE
  8
0
 10
7.4867
 20
9.299
 30
0.0
 40
0.11
  0
ARC
  8
0
 10
7.6157
 20
9.299
 30
0.0
 40
0.082
 50
132.79
 51
227.21
  0
ARC
  8
0
 10
7.3577
 20
9.299
 30
0.0
 40
0.082
 50
312.79
 51
47.21
  0
ARC
  8
0
 10
7.4867
 20
9.299
 30
0.0
 40
0.095
 50
309.092
 51
320.908
  0
ARC
  8
0
 10
7.4867
 20
9.299
 30
0.0
 40
0.095
 50
219.092
 51
230.908
  0
ARC
  8
0
 10
7.4867
 20
9.17
 30
0.0
 40
0.082
 50
42.79
 51
137.21
  0
ARC
  8
0
 10
7.4867
 20
9.299
 30
0.0
 40
0.095
 50
39.092
 51
50.908
  0
ARC
  8
0
 10
7.4867
 20
9.299
 30
0.0
 40
0.095
 50
129.092
 51
140.908
  0
ARC
  8
0
 10
7.4867
 20
9.428
 30
0.0
 40
0.082
 50
222.79
 51
317.21
  0
LINE
  8
0
 10
9.8632
 20
11.232
 30
0.0
 11
9.8632
 21
10.897
 31
0.0
  0
LINE
  8
0
 10
10.3632
 20
11.232
 30
0.0
 11
10.3632
 21
10.897
 31
0.0
  0
LINE
  8
0
 10
10.0252
 20
10.976
 30
0.0
 11
9.9732
 21
10.924
 31
0.0
  0
CIRCLE
  8
0
 10
10.1132
 20
11.064
 30
0.0
 40
0.125
  0
LINE
  8
0
 10
9.9262
 20
11.189
 30
0.0
 11
9.9262
 21
10.939
 31
0.0
  0
LINE
  8
0
 10
9.9262
 20
10.939
 30
0.0
 11
9.9732
 21
10.939
 31
0.0
  0
LINE
  8
0
 10
9.9262
 20
11.189
 30
0.0
 11
9.9732
 21
11.189
 31
0.0
  0
LINE
  8
0
 10
10.2012
 20
10.976
 30
0.0
 11
10.2532
 21
10.924
 31
0.0
  0
LINE
  8
0
 10
10.0912
 20
10.941
 30
0.0
 11
10.1762
 21
11.172
 31
0.0
  0
LINE
  8
0
 10
10.3012
 20
11.189
 30
0.0
 11
10.3012
 21
10.939
 31
0.0
  0
LINE
  8
0
 10
10.2532
 20
10.939
 30
0.0
 11
10.3012
 21
10.939
 31
0.0
  0
LINE
  8
0
 10
10.2532
 20
11.189
 30
0.0
 11
10.3012
 21
11.189
 31
0.0
  0
ARC
  8
0
 10
10.1132
 20
11.064
 30
0.0
 40
0.103
 50
150.722
 51
159.659
  0
ARC
  8
0
 10
9.9802
 20
11.004
 30
0.0
 40
0.087
 50
0.722
 51
68.835
  0
ARC
  8
0
 10
10.1132
 20
11.064
 30
0.0
 40
0.103
 50
159.659
 51
168.596
  0
ARC
  8
0
 10
10.1132
 20
11.064
 30
0.0
 40
0.103
 50
339.659
 51
348.596
  0
ARC
  8
0
 10
10.1132
 20
11.064
 30
0.0
 40
0.103
 50
330.722
 51
339.659
  0
ARC
  8
0
 10
10.2462
 20
11.125
 30
0.0
 40
0.087
 50
180.722
 51
248.835
  0
ARC
  8
0
 10
10.0522
 20
11.197
 30
0.0
 40
0.087
 50
250.482
 51
318.596
  0
ARC
  8
0
 10
10.1742
 20
10.932
 30
0.0
 40
0.087
 50
70.482
 51
138.596
  0
LINE
  8
0
 10
10.0502
 20
10.957
 30
0.0
 11
10.1352
 21
11.187
 31
0.0
  0
POLYLINE
  8
0
 66
     1
 10
0.0
 20
0.0
 30
0.0
 70
     1
  0
VERTEX
  8
0
 10
9.9732
 20
10.924
 30
0.0
  0
VERTEX
  8
0
 10
10.2532
 20
10.924
 30
0.0
  0
VERTEX
  8
0
 10
10.2532
 20
11.204
 30
0.0
  0
VERTEX
  8
0
 10
9.9732
 20
11.204
 30
0.0
  0
SEQEND
  8
0
  0
CIRCLE
  8
0
 10
10.1132
 20
11.44
 30
0.0
 40
0.125
  0
ARC
  8
0
 10
10.2162
 20
11.336
 30
0.0
 40
0.087
 50
90.823
 51
179.177
  0
ARC
  8
0
 10
10.0102
 20
11.336
 30
0.0
 40
0.087
 50
0.823
 51
89.177
  0
ARC
  8
0
 10
10.1132
 20
11.44
 30
0.0
 40
0.103
 50
351.063
 51
0.0
  0
ARC
  8
0
 10
10.1132
 20
11.44
 30
0.0
 40
0.103
 50
81.063
 51
90.0
  0
ARC
  8
0
 10
10.2162
 20
11.543
 30
0.0
 40
0.087
 50
180.823
 51
269.177
  0
ARC
  8
0
 10
10.1132
 20
11.44
 30
0.0
 40
0.103
 50
0.0
 51
8.937
  0
ARC
  8
0
 10
10.1132
 20
11.44
 30
0.0
 40
0.103
 50
171.063
 51
180.0
  0
ARC
  8
0
 10
10.0102
 20
11.543
 30
0.0
 40
0.087
 50
270.823
 51
359.177
  0
ARC
  8
0
 10
10.1132
 20
11.44
 30
0.0
 40
0.103
 50
90.0
 51
98.937
  0
ARC
  8
0
 10
10.1132
 20
11.44
 30
0.0
 40
0.103
 50
180.0
 51
188.937
  0
ARC
  8
0
 10
10.1132
 20
11.44
 30
0.0
 40
0.103
 50
270.0
 51
278.937
  0
ARC
  8
0
 10
10.1132
 20
11.44
 30
0.0
 40
0.103
 50
261.063
 51
270.0
  0
LINE
  8
0
 10
9.8632
 20
11.272
 30
0.0
 11
9.8632
 21
11.6118
 31
0.0
  0
LINE
  8
0
 10
10.3632
 20
11.272
 30
0.0
 11
10.3632
 21
11.6118
 31
0.0
  0
LINE
  8
0
 10
9.8332
 20
11.272
 30
0.0
 11
10.3932
 21
11.272
 31
0.0
  0
ARC
  8
0
 10
9.8332
 20
11.252
 30
0.0
 40
0.02
 50
90.0
 51
270.0
  0
ARC
  8
0
 10
10.3932
 20
11.252
 30
0.0
 40
0.02
 50
270.0
 51
90.0
  0
LINE
  8
0
 10
9.8332
 20
11.232
 30
0.0
 11
10.3932
 21
11.232
 31
0.0
  0
LINE
  8
0
 10
8.517
 20
9.299
 30
0.0
 11
9.642
 21
9.299
 31
0.0
  0
LINE
  8
0
 10
9.642
 20
9.299
 30
0.0
 11
9.642
 21
9.729
 31
0.0
  0
LINE
  8
0
 10
8.517
 20
9.729
 30
0.0
 11
9.642
 21
9.729
 31
0.0
  0
LINE
  8
0
 10
8.517
 20
9.299
 30
0.0
 11
8.517
 21
9.729
 31
0.0
  0
LINE
  8
0
 10
8.6191
 20
9.4183
 30
0.0
 11
8.6791
 21
9.4183
 31
0.0
  0
LINE
  8
0
 10
8.6191
 20
9.4183
 30
0.0
 11
8.6191
 21
9.5683
 31
0.0
  0
LINE
  8
0
 10
8.6191
 20
9.5683
 30
0.0
 11
8.6791
 21
9.5683
 31
0.0
  0
LINE
  8
0
 10
8.6791
 20
9.4183
 30
0.0
 11
8.6791
 21
9.5683
 31
0.0
  0
LINE
  8
0
 10
8.7191
 20
9.4183
 30
0.0
 11
8.7791
 21
9.4183
 31
0.0
  0
LINE
  8
0
 10
8.7191
 20
9.5683
 30
0.0
 11
8.7791
 21
9.5683
 31
0.0
  0
LINE
  8
0
 10
8.7791
 20
9.4183
 30
0.0
 11
8.7791
 21
9.5683
 31
0.0
  0
LINE
  8
0
 10
8.7191
 20
9.4183
 30
0.0
 11
8.7191
 21
9.5683
 31
0.0
  0
LINE
  8
0
 10
8.8191
 20
9.4183
 30
0.0
 11
8.8791
 21
9.4183
 31
0.0
  0
LINE
  8
0
 10
8.8191
 20
9.5683
 30
0.0
 11
8.8791
 21
9.5683
 31
0.0
  0
LINE
  8
0
 10
8.8791
 20
9.4183
 30
0.0
 11
8.8791
 21
9.5683
 31
0.0
  0
LINE
  8
0
 10
8.8191
 20
9.4183
 30
0.0
 11
8.8191
 21
9.5683
 31
0.0
  0
LINE
  8
0
 10
8.9191
 20
9.4183
 30
0.0
 11
8.9791
 21
9.4183
 31
0.0
  0
LINE
  8
0
 10
8.9191
 20
9.5683
 30
0.0
 11
8.9791
 21
9.5683
 31
0.0
  0
LINE
  8
0
 10
8.9791
 20
9.4183
 30
0.0
 11
8.9791
 21
9.5683
 31
0.0
  0
LINE
  8
0
 10
8.9191
 20
9.4183
 30
0.0
 11
8.9191
 21
9.5683
 31
0.0
  0
LINE
  8
0
 10
9.0191
 20
9.4183
 30
0.0
 11
9.0791
 21
9.4183
 31
0.0
  0
LINE
  8
0
 10
9.0191
 20
9.5683
 30
0.0
 11
9.0791
 21
9.5683
 31
0.0
  0
LINE
  8
0
 10
9.0791
 20
9.4183
 30
0.0
 11
9.0791
 21
9.5683
 31
0.0
  0
LINE
  8
0
 10
9.0191
 20
9.4183
 30
0.0
 11
9.0191
 21
9.5683
 31
0.0
  0
LINE
  8
0
 10
9.1191
 20
9.4183
 30
0.0
 11
9.1791
 21
9.4183
 31
0.0
  0
LINE
  8
0
 10
9.1191
 20
9.5683
 30
0.0
 11
9.1791
 21
9.5683
 31
0.0
  0
LINE
  8
0
 10
9.1791
 20
9.4183
 30
0.0
 11
9.1791
 21
9.5683
 31
0.0
  0
LINE
  8
0
 10
9.1191
 20
9.4183
 30
0.0
 11
9.1191
 21
9.5683
 31
0.0
  0
LINE
  8
0
 10
9.2191
 20
9.4183
 30
0.0
 11
9.2791
 21
9.4183
 31
0.0
  0
LINE
  8
0
 10
9.2191
 20
9.5683
 30
0.0
 11
9.2791
 21
9.5683
 31
0.0
  0
LINE
  8
0
 10
9.2791
 20
9.4183
 30
0.0
 11
9.2791
 21
9.5683
 31
0.0
  0
LINE
  8
0
 10
9.2191
 20
9.4183
 30
0.0
 11
9.2191
 21
9.5683
 31
0.0
  0
LINE
  8
0
 10
9.3191
 20
9.4183
 30
0.0
 11
9.3791
 21
9.4183
 31
0.0
  0
LINE
  8
0
 10
9.3191
 20
9.5683
 30
0.0
 11
9.3791
 21
9.5683
 31
0.0
  0
LINE
  8
0
 10
9.3791
 20
9.4183
 30
0.0
 11
9.3791
 21
9.5683
 31
0.0
  0
LINE
  8
0
 10
9.3191
 20
9.4183
 30
0.0
 11
9.3191
 21
9.5683
 31
0.0
  0
LINE
  8
0
 10
9.4191
 20
9.4183
 30
0.0
 11
9.4791
 21
9.4183
 31
0.0
  0
LINE
  8
0
 10
9.4191
 20
9.5683
 30
0.0
 11
9.4791
 21
9.5683
 31
0.0
  0
LINE
  8
0
 10
9.4791
 20
9.4183
 30
0.0
 11
9.4791
 21
9.5683
 31
0.0
  0
LINE
  8
0
 10
9.4191
 20
9.4183
 30
0.0
 11
9.4191
 21
9.5683
 31
0.0
  0
LINE
  8
0
 10
9.5191
 20
9.4183
 30
0.0
 11
9.5791
 21
9.4183
 31
0.0
  0
LINE
  8
0
 10
9.5191
 20
9.5683
 30
0.0
 11
9.5791
 21
9.5683
 31
0.0
  0
LINE
  8
0
 10
9.5791
 20
9.4183
 30
0.0
 11
9.5791
 21
9.5683
 31
0.0
  0
LINE
  8
0
 10
9.5191
 20
9.4183
 30
0.0
 11
9.5191
 21
9.5683
 31
0.0
  0
TEXT
  8
0
 10
8.62
 20
9.5882
 30
0.0
 40
0.06
  1
1
  7
ROMAND
  0
TEXT
  8
0
 10
8.7206
 20
9.5882
 30
0.0
 40
0.06
  1
2
  7
ROMAND
  0
TEXT
  8
0
 10
8.8202
 20
9.5882
 30
0.0
 40
0.06
  1
3
  7
ROMAND
  0
TEXT
  8
0
 10
8.9164
 20
9.5882
 30
0.0
 40
0.06
  1
4
  7
ROMAND
  0
TEXT
  8
0
 10
9.0239
 20
9.5882
 30
0.0
 40
0.06
  1
5
  7
ROMAND
  0
TEXT
  8
0
 10
9.1186
 20
9.5884
 30
0.0
 40
0.06
  1
6
  7
ROMAND
  0
TEXT
  8
0
 10
9.2207
 20
9.5884
 30
0.0
 40
0.06
  1
7
  7
ROMAND
  0
TEXT
  8
0
 10
9.318
 20
9.5896
 30
0.0
 40
0.06
  1
8
  7
ROMAND
  0
TEXT
  8
0
 10
9.4189
 20
9.5897
 30
0.0
 40
0.06
  1
9
  7
ROMAND
  0
TEXT
  8
0
 10
9.4859
 20
9.5874
 30
0.0
 40
0.06
  1
10
  7
ROMAND
  0
TEXT
  8
0
 10
8.5486
 20
9.5897
 30
0.0
 40
0.06
  1
O
  7
ROMAND
  0
TEXT
  8
0
 10
8.5495
 20
9.5248
 30
0.0
 40
0.06
  1
N
  7
ROMAND
  0
POLYLINE
  8
0
 66
     1
 10
0.0
 20
0.0
 30
0.0
 70
     1
  0
VERTEX
  8
0
 10
8.5785
 20
9.5029
 30
0.0
  0
VERTEX
  8
0
 10
8.5559
 20
9.4638
 30
0.0
  0
VERTEX
  8
0
 10
8.6011
 20
9.4638
 30
0.0
  0
SEQEND
  8
0
  0
LINE
  8
0
 10
8.5785
 20
9.4638
 30
0.0
 11
8.5785
 21
9.4191
 31
0.0
  0
POLYLINE
  8
0
 66
     1
 10
0.0
 20
0.0
 30
0.0
 40
0.04
 41
0.04
  0
VERTEX
  8
0
 10
8.6491
 20
9.5079
 30
0.0
  0
VERTEX
  8
0
 10
8.6491
 20
9.5683
 30
0.0
  0
SEQEND
  8
0
  0
POLYLINE
  8
0
 66
     1
 10
0.0
 20
0.0
 30
0.0
 40
0.04
 41
0.04
  0
VERTEX
  8
0
 10
8.7491
 20
9.5079
 30
0.0
  0
VERTEX
  8
0
 10
8.7491
 20
9.5683
 30
0.0
  0
SEQEND
  8
0
  0
POLYLINE
  8
0
 66
     1
 10
0.0
 20
0.0
 30
0.0
 40
0.04
 41
0.04
  0
VERTEX
  8
0
 10
8.8491
 20
9.5079
 30
0.0
  0
VERTEX
  8
0
 10
8.8491
 20
9.5683
 30
0.0
  0
SEQEND
  8
0
  0
POLYLINE
  8
0
 66
     1
 10
0.0
 20
0.0
 30
0.0
 40
0.04
 41
0.04
  0
VERTEX
  8
0
 10
8.9491
 20
9.4183
 30
0.0
  0
VERTEX
  8
0
 10
8.9491
 20
9.4787
 30
0.0
  0
SEQEND
  8
0
  0
POLYLINE
  8
0
 66
     1
 10
0.0
 20
0.0
 30
0.0
 40
0.04
 41
0.04
  0
VERTEX
  8
0
 10
9.0491
 20
9.4183
 30
0.0
  0
VERTEX
  8
0
 10
9.0491
 20
9.4787
 30
0.0
  0
SEQEND
  8
0
  0
POLYLINE
  8
0
 66
     1
 10
0.0
 20
0.0
 30
0.0
 40
0.04
 41
0.04
  0
VERTEX
  8
0
 10
9.1491
 20
9.4183
 30
0.0
  0
VERTEX
  8
0
 10
9.1491
 20
9.4787
 30
0.0
  0
SEQEND
  8
0
  0
POLYLINE
  8
0
 66
     1
 10
0.0
 20
0.0
 30
0.0
 40
0.04
 41
0.04
  0
VERTEX
  8
0
 10
9.2491
 20
9.4183
 30
0.0
  0
VERTEX
  8
0
 10
9.2491
 20
9.4787
 30
0.0
  0
SEQEND
  8
0
  0
POLYLINE
  8
0
 66
     1
 10
0.0
 20
0.0
 30
0.0
 40
0.04
 41
0.04
  0
VERTEX
  8
0
 10
9.3491
 20
9.5079
 30
0.0
  0
VERTEX
  8
0
 10
9.3491
 20
9.5683
 30
0.0
  0
SEQEND
  8
0
  0
POLYLINE
  8
0
 66
     1
 10
0.0
 20
0.0
 30
0.0
 40
0.04
 41
0.04
  0
VERTEX
  8
0
 10
9.4491
 20
9.5079
 30
0.0
  0
VERTEX
  8
0
 10
9.4491
 20
9.5683
 30
0.0
  0
SEQEND
  8
0
  0
POLYLINE
  8
0
 66
     1
 10
0.0
 20
0.0
 30
0.0
 40
0.04
 41
0.04
  0
VERTEX
  8
0
 10
9.5491
 20
9.5079
 30
0.0
  0
VERTEX
  8
0
 10
9.5491
 20
9.5683
 30
0.0
  0
SEQEND
  8
0
  0
POLYLINE
  8
0
 66
     1
 10
0.0
 20
0.0
 30
0.0
 40
0.04
 41
0.04
  0
VERTEX
  8
0
 10
8.5785
 20
9.3587
 30
0.0
  0
VERTEX
  8
0
 10
8.5785
 20
9.4191
 30
0.0
  0
SEQEND
  8
0
  0
LINE
  8
0
 10
8.5356
 20
9.673
 30
0.0
 11
9.616
 21
9.673
 31
0.0
  0
LINE
  8
0
 10
8.5356
 20
9.3442
 30
0.0
 11
9.616
 21
9.3442
 31
0.0
  0
LINE
  8
0
 10
8.5356
 20
9.673
 30
0.0
 11
8.5356
 21
9.3442
 31
0.0
  0
LINE
  8
0
 10
9.616
 20
9.673
 30
0.0
 11
9.616
 21
9.3442
 31
0.0
  0
TEXT
  8
0
 10
5.4717
 20
8.8044
 30
0.0
 40
0.11
  1
P
  7
ROMAND
  0
TEXT
  8
0
 10
5.8843
 20
8.8012
 30
0.0
 40
0.11
  1
W
  7
ROMAND
  0
TEXT
  8
0
 10
5.5649
 20
8.8062
 30
0.0
 40
0.08
  1
OWER
  7
ROMAND
  0
TEXT
  8
0
 10
6.0003
 20
8.8058
 30
0.0
 40
0.08
  1
AVE
  7
ROMAND
  0
TEXT
  8
0
 10
6.2608
 20
8.8663
 30
0.0
 40
0.05
  1
TM
  7
ROMANS
  0
TEXT
  8
0
 10
6.493
 20
8.8326
 30
0.0
 40
0.062
  1
MADE IN
  7
ROMANS
  0
TEXT
  8
0
 10
6.5779
 20
8.7322
 30
0.0
 40
0.062
  1
U.S.A.
  7
ROMANS
  0
CIRCLE
  8
0
 10
5.3359
 20
8.7903
 30
0.0
 40
0.0196
  0
LINE
  8
0
 10
5.2494
 20
8.7903
 30
0.0
 11
5.3162
 21
8.7903
 31
0.0
  0
LINE
  8
0
 10
5.4223
 20
8.9122
 30
0.0
 11
5.2885
 21
8.9122
 31
0.0
  0
LINE
  8
0
 10
5.3829
 20
8.6684
 30
0.0
 11
5.2494
 21
8.6684
 31
0.0
  0
LINE
  8
0
 10
5.4384
 20
8.7903
 30
0.0
 11
5.4315
 21
8.7208
 31
0.0
  0
POLYLINE
  8
0
 66
     1
 10
0.0
 20
0.0
 30
0.0
  0
VERTEX
  8
0
 10
5.3344
 20
8.7238
 30
0.0
 42
0.0642
  0
VERTEX
  8
0
 10
5.3381
 20
8.7043
 30
0.0
 42
0.0883
  0
VERTEX
  8
0
 10
5.3485
 20
8.6848
 30
0.0
 42
0.1052
 70
     2
 50
308.324
  0
VERTEX
  8
0
 10
5.365
 20
8.6712
 30
0.0
 42
0.1213
 50
308.324
  0
VERTEX
  8
0
 10
5.3831
 20
8.6667
 30
0.0
 42
0.1213
  0
VERTEX
  8
0
 10
5.4012
 20
8.6712
 30
0.0
 42
0.1052
  0
VERTEX
  8
0
 10
5.4176
 20
8.6848
 30
0.0
 42
0.0883
 70
     2
 50
51.676
  0
VERTEX
  8
0
 10
5.428
 20
8.7043
 30
0.0
 42
0.0544
 50
51.676
  0
VERTEX
  8
0
 10
5.4315
 20
8.7208
 30
0.0
 42
0.0793
  0
SEQEND
  8
0
  0
LINE
  8
0
 10
5.3344
 20
8.7238
 30
0.0
 11
5.3354
 21
8.7706
 31
0.0
  0
LINE
  8
0
 10
5.4223
 20
8.7902
 30
0.0
 11
5.4103
 21
8.7346
 31
0.0
  0
POLYLINE
  8
0
 66
     1
 10
0.0
 20
0.0
 30
0.0
  0
VERTEX
  8
0
 10
5.3351
 20
8.7439
 30
0.0
 42
0.0769
  0
VERTEX
  8
0
 10
5.3381
 20
8.7282
 30
0.0
 42
0.092
  0
VERTEX
  8
0
 10
5.3463
 20
8.714
 30
0.0
 42
0.1034
 70
     2
 50
310.5154
  0
VERTEX
  8
0
 10
5.359
 20
8.7042
 30
0.0
 42
0.1133
 50
310.5154
  0
VERTEX
  8
0
 10
5.3733
 20
8.7009
 30
0.0
 42
0.1133
  0
VERTEX
  8
0
 10
5.3876
 20
8.7042
 30
0.0
 42
0.1034
  0
VERTEX
  8
0
 10
5.4003
 20
8.714
 30
0.0
 42
0.092
 70
     2
 50
49.4846
  0
VERTEX
  8
0
 10
5.4085
 20
8.7282
 30
0.0
 42
0.032
 50
49.4846
  0
VERTEX
  8
0
 10
5.4103
 20
8.7346
 30
0.0
 42
0.0853
  0
SEQEND
  8
0
  0
LINE
  8
0
 10
5.4223
 20
8.7902
 30
0.0
 11
5.4223
 21
8.9122
 31
0.0
  0
POLYLINE
  8
0
 66
     1
 10
0.0
 20
0.0
 30
0.0
  0
VERTEX
  8
0
 10
5.3374
 20
8.8567
 30
0.0
 42
0.0642
  0
VERTEX
  8
0
 10
5.3336
 20
8.8763
 30
0.0
 42
0.0883
  0
VERTEX
  8
0
 10
5.3232
 20
8.8957
 30
0.0
 42
0.1052
 70
     2
 50
128.324
  0
VERTEX
  8
0
 10
5.3067
 20
8.9094
 30
0.0
 42
0.1213
 50
308.324
  0
VERTEX
  8
0
 10
5.2887
 20
8.9138
 30
0.0
 42
0.1213
  0
VERTEX
  8
0
 10
5.2706
 20
8.9094
 30
0.0
 42
0.1052
  0
VERTEX
  8
0
 10
5.2541
 20
8.8957
 30
0.0
 42
0.0883
 70
     2
 50
231.676
  0
VERTEX
  8
0
 10
5.2437
 20
8.8763
 30
0.0
 42
0.0544
 50
51.676
  0
VERTEX
  8
0
 10
5.2402
 20
8.8598
 30
0.0
 42
0.0793
  0
SEQEND
  8
0
  0
POLYLINE
  8
0
 66
     1
 10
0.0
 20
0.0
 30
0.0
  0
VERTEX
  8
0
 10
5.3366
 20
8.8367
 30
0.0
 42
0.0769
  0
VERTEX
  8
0
 10
5.3337
 20
8.8524
 30
0.0
 42
0.092
  0
VERTEX
  8
0
 10
5.3255
 20
8.8666
 30
0.0
 42
0.1034
 70
     2
 50
130.5154
  0
VERTEX
  8
0
 10
5.3127
 20
8.8764
 30
0.0
 42
0.1133
 50
310.5154
  0
VERTEX
  8
0
 10
5.2984
 20
8.8797
 30
0.0
 42
0.1133
  0
VERTEX
  8
0
 10
5.2841
 20
8.8764
 30
0.0
 42
0.1034
  0
VERTEX
  8
0
 10
5.2714
 20
8.8666
 30
0.0
 42
0.092
 70
     2
 50
229.4846
  0
VERTEX
  8
0
 10
5.2632
 20
8.8524
 30
0.0
 42
0.032
 50
49.4846
  0
VERTEX
  8
0
 10
5.2614
 20
8.846
 30
0.0
 42
0.0853
  0
SEQEND
  8
0
  0
LINE
  8
0
 10
5.2494
 20
8.7903
 30
0.0
 11
5.2614
 21
8.846
 31
0.0
  0
LINE
  8
0
 10
5.2333
 20
8.7903
 30
0.0
 11
5.2402
 21
8.8598
 31
0.0
  0
LINE
  8
0
 10
5.3374
 20
8.8567
 30
0.0
 11
5.3363
 21
8.8099
 31
0.0
  0
LINE
  8
0
 10
5.2494
 20
8.7903
 30
0.0
 11
5.2494
 21
8.6684
 31
0.0
  0
LINE
  8
0
 10
5.3555
 20
8.7903
 30
0.0
 11
5.4223
 21
8.7903
 31
0.0
  0
TEXT
  8
0
 10
7.9162
 20
4.2679
 30
0.0
 40
0.26
  1
CX404
  7
ROMAND
  0
TEXT
  8
0
 10
20.7484
 20
3.8654
 30
0.0
 40
0.07
  1
(31dB)
  7
ROMAND
  0
POLYLINE
  8
0
 66
     1
 10
0.0
 20
0.0
 30
0.0
 70
     1
 40
0.02
 41
0.02
  0
VERTEX
  8
0
 10
20.1658
 20
4.115
 30
0.0
 42
1.0
  0
VERTEX
  8
0
 10
20.1485
 20
4.125
 30
0.0
 42
1.0
  0
SEQEND
  8
0
  0
TEXT
  8
0
 10
19.4115
 20
4.041
 30
0.0
 40
0.09
  1
24
  7
ROMAND
  0
POLYLINE
  8
0
 66
     1
 10
0.0
 20
0.0
 30
0.0
 70
     1
 40
0.02
 41
0.02
  0
VERTEX
  8
0
 10
19.5942
 20
4.115
 30
0.0
 42
1.0
  0
VERTEX
  8
0
 10
19.6115
 20
4.125
 30
0.0
 42
1.0
  0
SEQEND
  8
0
  0
POLYLINE
  8
0
 66
     1
 10
0.0
 20
0.0
 30
0.0
 40
0.075
 41
0.075
  0
VERTEX
  8
0
 10
19.7904
 20
4.1124
 30
0.0
  0
VERTEX
  8
0
 10
19.8328
 20
4.1917
 30
0.0
  0
SEQEND
  8
0
  0
LINE
  8
0
 10
20.0187
 20
4.3867
 30
0.0
 11
19.8683
 21
4.1054
 31
0.0
  0
LINE
  8
0
 10
19.9933
 20
4.4134
 30
0.0
 11
19.832
 21
4.1117
 31
0.0
  0
CIRCLE
  8
0
 10
19.88
 20
4.28
 30
0.0
 40
0.175
  0
CIRCLE
  8
0
 10
19.88
 20
4.28
 30
0.0
 40
0.25
  0
TEXT
  8
0
 10
19.7984
 20
3.8654
 30
0.0
 40
0.07
  1
(31dB)
  7
ROMAND
  0
POLYLINE
  8
0
 66
     1
 10
0.0
 20
0.0
 30
0.0
 70
     1
 40
0.02
 41
0.02
  0
VERTEX
  8
0
 10
20.045
 20
3.9942
 30
0.0
 42
1.0
  0
VERTEX
  8
0
 10
20.035
 20
4.0115
 30
0.0
 42
1.0
  0
SEQEND
  8
0
  0
TEXT
  8
0
 10
19.6781
 20
3.6541
 30
0.0
 40
0.09
  1
ATTEN
  7
ROMAND
  0
TEXT
  8
0
 10
19.6468
 20
3.8618
 30
0.0
 40
0.09
  1
0
  7
ROMAND
  0
POLYLINE
  8
0
 66
     1
 10
0.0
 20
0.0
 30
0.0
 70
     1
 40
0.02
 41
0.02
  0
VERTEX
  8
0
 10
19.715
 20
3.9942
 30
0.0
 42
1.0
  0
VERTEX
  8
0
 10
19.725
 20
4.0115
 30
0.0
 42
1.0
  0
SEQEND
  8
0
  0
TEXT
  8
0
 10
19.5815
 20
3.8618
 30
0.0
 40
0.09
  1
O
  7
ROMAND
  0
POLYLINE
  8
0
 66
     1
 10
0.0
 20
0.0
 30
0.0
 70
     1
 40
0.02
 41
0.02
  0
VERTEX
  8
0
 10
19.6467
 20
4.0467
 30
0.0
 42
1.0
  0
VERTEX
  8
0
 10
19.6608
 20
4.0608
 30
0.0
 42
1.0
  0
SEQEND
  8
0
  0
TEXT
  8
0
 10
20.1606
 20
3.8496
 30
0.0
 40
0.09
  1
0
  7
ROMAND
  0
TEXT
  8
0
 10
20.1802
 20
4.0288
 30
0.0
 40
0.09
  1
2
  7
ROMAND
  0
POLYLINE
  8
0
 66
     1
 10
0.0
 20
0.0
 30
0.0
 70
     1
 40
0.02
 41
0.02
  0
VERTEX
  8
0
 10
20.1133
 20
4.0467
 30
0.0
 42
1.0
  0
VERTEX
  8
0
 10
20.0992
 20
4.0608
 30
0.0
 42
1.0
  0
SEQEND
  8
0
  0
POLYLINE
  8
0
 66
     1
 10
0.0
 20
0.0
 30
0.0
 70
     1
 40
0.02
 41
0.02
  0
VERTEX
  8
0
 10
20.045
 20
4.5658
 30
0.0
 42
1.0
  0
VERTEX
  8
0
 10
20.035
 20
4.5485
 30
0.0
 42
1.0
  0
SEQEND
  8
0
  0
POLYLINE
  8
0
 66
     1
 10
0.0
 20
0.0
 30
0.0
 70
     1
 40
0.02
 41
0.02
  0
VERTEX
  8
0
 10
19.715
 20
4.5658
 30
0.0
 42
1.0
  0
VERTEX
  8
0
 10
19.725
 20
4.5485
 30
0.0
 42
1.0
  0
SEQEND
  8
0
  0
TEXT
  8
0
 10
19.4115
 20
4.4402
 30
0.0
 40
0.09
  1
14
  7
ROMAND
  0
POLYLINE
  8
0
 66
     1
 10
0.0
 20
0.0
 30
0.0
 70
     1
 40
0.02
 41
0.02
  0
VERTEX
  8
0
 10
19.5612
 20
4.3654
 30
0.0
 42
1.0
  0
VERTEX
  8
0
 10
19.5806
 20
4.3602
 30
0.0
 42
1.0
  0
SEQEND
  8
0
  0
POLYLINE
  8
0
 66
     1
 10
0.0
 20
0.0
 30
0.0
 70
     1
 40
0.02
 41
0.02
  0
VERTEX
  8
0
 10
19.5942
 20
4.445
 30
0.0
 42
1.0
  0
VERTEX
  8
0
 10
19.6115
 20
4.435
 30
0.0
 42
1.0
  0
SEQEND
  8
0
  0
POLYLINE
  8
0
 66
     1
 10
0.0
 20
0.0
 30
0.0
 70
     1
 40
0.02
 41
0.02
  0
VERTEX
  8
0
 10
19.6467
 20
4.5133
 30
0.0
 42
1.0
  0
VERTEX
  8
0
 10
19.6608
 20
4.4992
 30
0.0
 42
1.0
  0
SEQEND
  8
0
  0
POLYLINE
  8
0
 66
     1
 10
0.0
 20
0.0
 30
0.0
 70
     1
 40
0.02
 41
0.02
  0
VERTEX
  8
0
 10
19.5612
 20
4.1946
 30
0.0
 42
1.0
  0
VERTEX
  8
0
 10
19.5806
 20
4.1998
 30
0.0
 42
1.0
  0
SEQEND
  8
0
  0
POLYLINE
  8
0
 66
     1
 10
0.0
 20
0.0
 30
0.0
 70
     1
 40
0.02
 41
0.02
  0
VERTEX
  8
0
 10
19.55
 20
4.28
 30
0.0
 42
1.0
  0
VERTEX
  8
0
 10
19.57
 20
4.28
 30
0.0
 42
1.0
  0
SEQEND
  8
0
  0
TEXT
  8
0
 10
19.3625
 20
4.2365
 30
0.0
 40
0.09
  1
18
  7
ROMAND
  0
LINE
  8
0
 10
19.928
 20
4.4483
 30
0.0
 11
19.7667
 21
4.1466
 31
0.0
  0
LINE
  8
0
 10
19.8917
 20
4.4546
 30
0.0
 11
19.7413
 21
4.1733
 31
0.0
  0
TEXT
  8
0
 10
19.5408
 20
4.6031
 30
0.0
 40
0.09
  1
12
  7
ROMAND
  0
POLYLINE
  8
0
 66
     1
 10
0.0
 20
0.0
 30
0.0
 70
     1
 40
0.02
 41
0.02
  0
VERTEX
  8
0
 10
19.7946
 20
4.5988
 30
0.0
 42
1.0
  0
VERTEX
  8
0
 10
19.7998
 20
4.5794
 30
0.0
 42
1.0
  0
SEQEND
  8
0
  0
TEXT
  8
0
 10
19.7936
 20
4.652
 30
0.0
 40
0.09
  1
10
  7
ROMAND
  0
POLYLINE
  8
0
 66
     1
 10
0.0
 20
0.0
 30
0.0
 70
     1
 40
0.02
 41
0.02
  0
VERTEX
  8
0
 10
19.88
 20
4.61
 30
0.0
 42
1.0
  0
VERTEX
  8
0
 10
19.88
 20
4.59
 30
0.0
 42
1.0
  0
SEQEND
  8
0
  0
POLYLINE
  8
0
 66
     1
 10
0.0
 20
0.0
 30
0.0
 70
     1
 40
0.02
 41
0.02
  0
VERTEX
  8
0
 10
19.9654
 20
4.5988
 30
0.0
 42
1.0
  0
VERTEX
  8
0
 10
19.9602
 20
4.5794
 30
0.0
 42
1.0
  0
SEQEND
  8
0
  0
TEXT
  8
0
 10
20.1761
 20
4.4361
 30
0.0
 40
0.09
  1
6
  7
ROMAND
  0
POLYLINE
  8
0
 66
     1
 10
0.0
 20
0.0
 30
0.0
 70
     1
 40
0.02
 41
0.02
  0
VERTEX
  8
0
 10
20.1658
 20
4.445
 30
0.0
 42
1.0
  0
VERTEX
  8
0
 10
20.1485
 20
4.435
 30
0.0
 42
1.0
  0
SEQEND
  8
0
  0
POLYLINE
  8
0
 66
     1
 10
0.0
 20
0.0
 30
0.0
 70
     1
 40
0.02
 41
0.02
  0
VERTEX
  8
0
 10
20.1988
 20
4.3654
 30
0.0
 42
1.0
  0
VERTEX
  8
0
 10
20.1794
 20
4.3602
 30
0.0
 42
1.0
  0
SEQEND
  8
0
  0
POLYLINE
  8
0
 66
     1
 10
0.0
 20
0.0
 30
0.0
 70
     1
 40
0.02
 41
0.02
  0
VERTEX
  8
0
 10
20.21
 20
4.28
 30
0.0
 42
1.0
  0
VERTEX
  8
0
 10
20.19
 20
4.28
 30
0.0
 42
1.0
  0
SEQEND
  8
0
  0
POLYLINE
  8
0
 66
     1
 10
0.0
 20
0.0
 30
0.0
 70
     1
 40
0.02
 41
0.02
  0
VERTEX
  8
0
 10
20.1988
 20
4.1946
 30
0.0
 42
1.0
  0
VERTEX
  8
0
 10
20.1794
 20
4.1998
 30
0.0
 42
1.0
  0
SEQEND
  8
0
  0
POLYLINE
  8
0
 66
     1
 10
0.0
 20
0.0
 30
0.0
 70
     1
 40
0.02
 41
0.02
  0
VERTEX
  8
0
 10
20.1133
 20
4.5133
 30
0.0
 42
1.0
  0
VERTEX
  8
0
 10
20.0992
 20
4.4992
 30
0.0
 42
1.0
  0
SEQEND
  8
0
  0
TEXT
  8
0
 10
20.0546
 20
4.5909
 30
0.0
 40
0.09
  1
8
  7
ROMAND
  0
POLYLINE
  8
0
 66
     1
 10
0.0
 20
0.0
 30
0.0
 70
     1
 40
0.02
 41
0.02
  0
VERTEX
  8
0
 10
19.2658
 20
4.115
 30
0.0
 42
1.0
  0
VERTEX
  8
0
 10
19.2485
 20
4.125
 30
0.0
 42
1.0
  0
SEQEND
  8
0
  0
TEXT
  8
0
 10
18.5115
 20
4.041
 30
0.0
 40
0.09
  1
24
  7
ROMAND
  0
POLYLINE
  8
0
 66
     1
 10
0.0
 20
0.0
 30
0.0
 70
     1
 40
0.02
 41
0.02
  0
VERTEX
  8
0
 10
18.6942
 20
4.115
 30
0.0
 42
1.0
  0
VERTEX
  8
0
 10
18.7115
 20
4.125
 30
0.0
 42
1.0
  0
SEQEND
  8
0
  0
POLYLINE
  8
0
 66
     1
 10
0.0
 20
0.0
 30
0.0
 40
0.075
 41
0.075
  0
VERTEX
  8
0
 10
18.8904
 20
4.1124
 30
0.0
  0
VERTEX
  8
0
 10
18.9328
 20
4.1917
 30
0.0
  0
SEQEND
  8
0
  0
LINE
  8
0
 10
19.1187
 20
4.3867
 30
0.0
 11
18.9683
 21
4.1054
 31
0.0
  0
LINE
  8
0
 10
19.0933
 20
4.4134
 30
0.0
 11
18.932
 21
4.1117
 31
0.0
  0
CIRCLE
  8
0
 10
18.98
 20
4.28
 30
0.0
 40
0.175
  0
CIRCLE
  8
0
 10
18.98
 20
4.28
 30
0.0
 40
0.25
  0
TEXT
  8
0
 10
18.8984
 20
3.8654
 30
0.0
 40
0.07
  1
(31dB)
  7
ROMAND
  0
POLYLINE
  8
0
 66
     1
 10
0.0
 20
0.0
 30
0.0
 70
     1
 40
0.02
 41
0.02
  0
VERTEX
  8
0
 10
19.145
 20
3.9942
 30
0.0
 42
1.0
  0
VERTEX
  8
0
 10
19.135
 20
4.0115
 30
0.0
 42
1.0
  0
SEQEND
  8
0
  0
TEXT
  8
0
 10
18.7781
 20
3.6541
 30
0.0
 40
0.09
  1
ATTEN
  7
ROMAND
  0
TEXT
  8
0
 10
18.7468
 20
3.8618
 30
0.0
 40
0.09
  1
0
  7
ROMAND
  0
POLYLINE
  8
0
 66
     1
 10
0.0
 20
0.0
 30
0.0
 70
     1
 40
0.02
 41
0.02
  0
VERTEX
  8
0
 10
18.815
 20
3.9942
 30
0.0
 42
1.0
  0
VERTEX
  8
0
 10
18.825
 20
4.0115
 30
0.0
 42
1.0
  0
SEQEND
  8
0
  0
TEXT
  8
0
 10
18.6815
 20
3.8618
 30
0.0
 40
0.09
  1
O
  7
ROMAND
  0
POLYLINE
  8
0
 66
     1
 10
0.0
 20
0.0
 30
0.0
 70
     1
 40
0.02
 41
0.02
  0
VERTEX
  8
0
 10
18.7467
 20
4.0467
 30
0.0
 42
1.0
  0
VERTEX
  8
0
 10
18.7608
 20
4.0608
 30
0.0
 42
1.0
  0
SEQEND
  8
0
  0
TEXT
  8
0
 10
19.2606
 20
3.8496
 30
0.0
 40
0.09
  1
0
  7
ROMAND
  0
TEXT
  8
0
 10
19.2798
 20
4.0288
 30
0.0
 40
0.09
  1
2
  7
ROMAND
  0
POLYLINE
  8
0
 66
     1
 10
0.0
 20
0.0
 30
0.0
 70
     1
 40
0.02
 41
0.02
  0
VERTEX
  8
0
 10
19.2133
 20
4.0467
 30
0.0
 42
1.0
  0
VERTEX
  8
0
 10
19.1992
 20
4.0608
 30
0.0
 42
1.0
  0
SEQEND
  8
0
  0
POLYLINE
  8
0
 66
     1
 10
0.0
 20
0.0
 30
0.0
 70
     1
 40
0.02
 41
0.02
  0
VERTEX
  8
0
 10
19.145
 20
4.5658
 30
0.0
 42
1.0
  0
VERTEX
  8
0
 10
19.135
 20
4.5485
 30
0.0
 42
1.0
  0
SEQEND
  8
0
  0
POLYLINE
  8
0
 66
     1
 10
0.0
 20
0.0
 30
0.0
 70
     1
 40
0.02
 41
0.02
  0
VERTEX
  8
0
 10
18.815
 20
4.5658
 30
0.0
 42
1.0
  0
VERTEX
  8
0
 10
18.825
 20
4.5485
 30
0.0
 42
1.0
  0
SEQEND
  8
0
  0
TEXT
  8
0
 10
18.5115
 20
4.4402
 30
0.0
 40
0.09
  1
14
  7
ROMAND
  0
POLYLINE
  8
0
 66
     1
 10
0.0
 20
0.0
 30
0.0
 70
     1
 40
0.02
 41
0.02
  0
VERTEX
  8
0
 10
18.6612
 20
4.3654
 30
0.0
 42
1.0
  0
VERTEX
  8
0
 10
18.6806
 20
4.3602
 30
0.0
 42
1.0
  0
SEQEND
  8
0
  0
POLYLINE
  8
0
 66
     1
 10
0.0
 20
0.0
 30
0.0
 70
     1
 40
0.02
 41
0.02
  0
VERTEX
  8
0
 10
18.6942
 20
4.445
 30
0.0
 42
1.0
  0
VERTEX
  8
0
 10
18.7115
 20
4.435
 30
0.0
 42
1.0
  0
SEQEND
  8
0
  0
POLYLINE
  8
0
 66
     1
 10
0.0
 20
0.0
 30
0.0
 70
     1
 40
0.02
 41
0.02
  0
VERTEX
  8
0
 10
18.7467
 20
4.5133
 30
0.0
 42
1.0
  0
VERTEX
  8
0
 10
18.7608
 20
4.4992
 30
0.0
 42
1.0
  0
SEQEND
  8
0
  0
POLYLINE
  8
0
 66
     1
 10
0.0
 20
0.0
 30
0.0
 70
     1
 40
0.02
 41
0.02
  0
VERTEX
  8
0
 10
18.6612
 20
4.1946
 30
0.0
 42
1.0
  0
VERTEX
  8
0
 10
18.6806
 20
4.1998
 30
0.0
 42
1.0
  0
SEQEND
  8
0
  0
POLYLINE
  8
0
 66
     1
 10
0.0
 20
0.0
 30
0.0
 70
     1
 40
0.02
 41
0.02
  0
VERTEX
  8
0
 10
18.65
 20
4.28
 30
0.0
 42
1.0
  0
VERTEX
  8
0
 10
18.67
 20
4.28
 30
0.0
 42
1.0
  0
SEQEND
  8
0
  0
TEXT
  8
0
 10
18.4625
 20
4.2365
 30
0.0
 40
0.09
  1
18
  7
ROMAND
  0
LINE
  8
0
 10
19.028
 20
4.4483
 30
0.0
 11
18.8667
 21
4.1466
 31
0.0
  0
LINE
  8
0
 10
18.9917
 20
4.4546
 30
0.0
 11
18.8413
 21
4.1733
 31
0.0
  0
TEXT
  8
0
 10
18.6408
 20
4.6031
 30
0.0
 40
0.09
  1
12
  7
ROMAND
  0
POLYLINE
  8
0
 66
     1
 10
0.0
 20
0.0
 30
0.0
 70
     1
 40
0.02
 41
0.02
  0
VERTEX
  8
0
 10
18.8946
 20
4.5988
 30
0.0
 42
1.0
  0
VERTEX
  8
0
 10
18.8998
 20
4.5794
 30
0.0
 42
1.0
  0
SEQEND
  8
0
  0
TEXT
  8
0
 10
18.8936
 20
4.652
 30
0.0
 40
0.09
  1
10
  7
ROMAND
  0
POLYLINE
  8
0
 66
     1
 10
0.0
 20
0.0
 30
0.0
 70
     1
 40
0.02
 41
0.02
  0
VERTEX
  8
0
 10
18.98
 20
4.61
 30
0.0
 42
1.0
  0
VERTEX
  8
0
 10
18.98
 20
4.59
 30
0.0
 42
1.0
  0
SEQEND
  8
0
  0
POLYLINE
  8
0
 66
     1
 10
0.0
 20
0.0
 30
0.0
 70
     1
 40
0.02
 41
0.02
  0
VERTEX
  8
0
 10
19.0654
 20
4.5988
 30
0.0
 42
1.0
  0
VERTEX
  8
0
 10
19.0602
 20
4.5794
 30
0.0
 42
1.0
  0
SEQEND
  8
0
  0
TEXT
  8
0
 10
19.2757
 20
4.4361
 30
0.0
 40
0.09
  1
6
  7
ROMAND
  0
POLYLINE
  8
0
 66
     1
 10
0.0
 20
0.0
 30
0.0
 70
     1
 40
0.02
 41
0.02
  0
VERTEX
  8
0
 10
19.2658
 20
4.445
 30
0.0
 42
1.0
  0
VERTEX
  8
0
 10
19.2485
 20
4.435
 30
0.0
 42
1.0
  0
SEQEND
  8
0
  0
POLYLINE
  8
0
 66
     1
 10
0.0
 20
0.0
 30
0.0
 70
     1
 40
0.02
 41
0.02
  0
VERTEX
  8
0
 10
19.2988
 20
4.3654
 30
0.0
 42
1.0
  0
VERTEX
  8
0
 10
19.2794
 20
4.3602
 30
0.0
 42
1.0
  0
SEQEND
  8
0
  0
POLYLINE
  8
0
 66
     1
 10
0.0
 20
0.0
 30
0.0
 70
     1
 40
0.02
 41
0.02
  0
VERTEX
  8
0
 10
19.31
 20
4.28
 30
0.0
 42
1.0
  0
VERTEX
  8
0
 10
19.29
 20
4.28
 30
0.0
 42
1.0
  0
SEQEND
  8
0
  0
POLYLINE
  8
0
 66
     1
 10
0.0
 20
0.0
 30
0.0
 70
     1
 40
0.02
 41
0.02
  0
VERTEX
  8
0
 10
19.2988
 20
4.1946
 30
0.0
 42
1.0
  0
VERTEX
  8
0
 10
19.2794
 20
4.1998
 30
0.0
 42
1.0
  0
SEQEND
  8
0
  0
POLYLINE
  8
0
 66
     1
 10
0.0
 20
0.0
 30
0.0
 70
     1
 40
0.02
 41
0.02
  0
VERTEX
  8
0
 10
19.2133
 20
4.5133
 30
0.0
 42
1.0
  0
VERTEX
  8
0
 10
19.1992
 20
4.4992
 30
0.0
 42
1.0
  0
SEQEND
  8
0
  0
TEXT
  8
0
 10
19.1546
 20
4.5909
 30
0.0
 40
0.09
  1
8
  7
ROMAND
  0
POLYLINE
  8
0
 66
     1
 10
0.0
 20
0.0
 30
0.0
 70
     1
 40
0.02
 41
0.02
  0
VERTEX
  8
0
 10
18.3658
 20
4.115
 30
0.0
 42
1.0
  0
VERTEX
  8
0
 10
18.3485
 20
4.125
 30
0.0
 42
1.0
  0
SEQEND
  8
0
  0
TEXT
  8
0
 10
17.598
 20
4.041
 30
0.0
 40
0.09
  1
24
  7
ROMAND
  0
POLYLINE
  8
0
 66
     1
 10
0.0
 20
0.0
 30
0.0
 70
     1
 40
0.02
 41
0.02
  0
VERTEX
  8
0
 10
17.7942
 20
4.115
 30
0.0
 42
1.0
  0
VERTEX
  8
0
 10
17.8115
 20
4.125
 30
0.0
 42
1.0
  0
SEQEND
  8
0
  0
POLYLINE
  8
0
 66
     1
 10
0.0
 20
0.0
 30
0.0
 40
0.075
 41
0.075
  0
VERTEX
  8
0
 10
17.9904
 20
4.1124
 30
0.0
  0
VERTEX
  8
0
 10
18.0328
 20
4.1917
 30
0.0
  0
SEQEND
  8
0
  0
LINE
  8
0
 10
18.2187
 20
4.3867
 30
0.0
 11
18.0683
 21
4.1054
 31
0.0
  0
LINE
  8
0
 10
18.1933
 20
4.4134
 30
0.0
 11
18.032
 21
4.1117
 31
0.0
  0
CIRCLE
  8
0
 10
18.08
 20
4.28
 30
0.0
 40
0.175
  0
CIRCLE
  8
0
 10
18.08
 20
4.28
 30
0.0
 40
0.25
  0
TEXT
  8
0
 10
17.9984
 20
3.8654
 30
0.0
 40
0.07
  1
(31dB)
  7
ROMAND
  0
POLYLINE
  8
0
 66
     1
 10
0.0
 20
0.0
 30
0.0
 70
     1
 40
0.02
 41
0.02
  0
VERTEX
  8
0
 10
18.245
 20
3.9942
 30
0.0
 42
1.0
  0
VERTEX
  8
0
 10
18.235
 20
4.0115
 30
0.0
 42
1.0
  0
SEQEND
  8
0
  0
TEXT
  8
0
 10
17.8781
 20
3.6541
 30
0.0
 40
0.09
  1
ATTEN
  7
ROMAND
  0
TEXT
  8
0
 10
17.8468
 20
3.8618
 30
0.0
 40
0.09
  1
0
  7
ROMAND
  0
POLYLINE
  8
0
 66
     1
 10
0.0
 20
0.0
 30
0.0
 70
     1
 40
0.02
 41
0.02
  0
VERTEX
  8
0
 10
17.915
 20
3.9942
 30
0.0
 42
1.0
  0
VERTEX
  8
0
 10
17.925
 20
4.0115
 30
0.0
 42
1.0
  0
SEQEND
  8
0
  0
TEXT
  8
0
 10
17.7815
 20
3.8618
 30
0.0
 40
0.09
  1
O
  7
ROMAND
  0
POLYLINE
  8
0
 66
     1
 10
0.0
 20
0.0
 30
0.0
 70
     1
 40
0.02
 41
0.02
  0
VERTEX
  8
0
 10
17.8467
 20
4.0467
 30
0.0
 42
1.0
  0
VERTEX
  8
0
 10
17.8608
 20
4.0608
 30
0.0
 42
1.0
  0
SEQEND
  8
0
  0
TEXT
  8
0
 10
18.3606
 20
3.8496
 30
0.0
 40
0.09
  1
0
  7
ROMAND
  0
TEXT
  8
0
 10
18.3798
 20
4.0288
 30
0.0
 40
0.09
  1
2
  7
ROMAND
  0
POLYLINE
  8
0
 66
     1
 10
0.0
 20
0.0
 30
0.0
 70
     1
 40
0.02
 41
0.02
  0
VERTEX
  8
0
 10
18.3133
 20
4.0467
 30
0.0
 42
1.0
  0
VERTEX
  8
0
 10
18.2992
 20
4.0608
 30
0.0
 42
1.0
  0
SEQEND
  8
0
  0
POLYLINE
  8
0
 66
     1
 10
0.0
 20
0.0
 30
0.0
 70
     1
 40
0.02
 41
0.02
  0
VERTEX
  8
0
 10
18.245
 20
4.5658
 30
0.0
 42
1.0
  0
VERTEX
  8
0
 10
18.235
 20
4.5485
 30
0.0
 42
1.0
  0
SEQEND
  8
0
  0
POLYLINE
  8
0
 66
     1
 10
0.0
 20
0.0
 30
0.0
 70
     1
 40
0.02
 41
0.02
  0
VERTEX
  8
0
 10
17.915
 20
4.5658
 30
0.0
 42
1.0
  0
VERTEX
  8
0
 10
17.925
 20
4.5485
 30
0.0
 42
1.0
  0
SEQEND
  8
0
  0
TEXT
  8
0
 10
17.598
 20
4.4402
 30
0.0
 40
0.09
  1
14
  7
ROMAND
  0
POLYLINE
  8
0
 66
     1
 10
0.0
 20
0.0
 30
0.0
 70
     1
 40
0.02
 41
0.02
  0
VERTEX
  8
0
 10
17.7612
 20
4.3654
 30
0.0
 42
1.0
  0
VERTEX
  8
0
 10
17.7806
 20
4.3602
 30
0.0
 42
1.0
  0
SEQEND
  8
0
  0
POLYLINE
  8
0
 66
     1
 10
0.0
 20
0.0
 30
0.0
 70
     1
 40
0.02
 41
0.02
  0
VERTEX
  8
0
 10
17.7942
 20
4.445
 30
0.0
 42
1.0
  0
VERTEX
  8
0
 10
17.8115
 20
4.435
 30
0.0
 42
1.0
  0
SEQEND
  8
0
  0
POLYLINE
  8
0
 66
     1
 10
0.0
 20
0.0
 30
0.0
 70
     1
 40
0.02
 41
0.02
  0
VERTEX
  8
0
 10
17.8467
 20
4.5133
 30
0.0
 42
1.0
  0
VERTEX
  8
0
 10
17.8608
 20
4.4992
 30
0.0
 42
1.0
  0
SEQEND
  8
0
  0
POLYLINE
  8
0
 66
     1
 10
0.0
 20
0.0
 30
0.0
 70
     1
 40
0.02
 41
0.02
  0
VERTEX
  8
0
 10
17.7612
 20
4.1946
 30
0.0
 42
1.0
  0
VERTEX
  8
0
 10
17.7806
 20
4.1998
 30
0.0
 42
1.0
  0
SEQEND
  8
0
  0
POLYLINE
  8
0
 66
     1
 10
0.0
 20
0.0
 30
0.0
 70
     1
 40
0.02
 41
0.02
  0
VERTEX
  8
0
 10
17.75
 20
4.28
 30
0.0
 42
1.0
  0
VERTEX
  8
0
 10
17.77
 20
4.28
 30
0.0
 42
1.0
  0
SEQEND
  8
0
  0
TEXT
  8
0
 10
17.5491
 20
4.2365
 30
0.0
 40
0.09
  1
18
  7
ROMAND
  0
LINE
  8
0
 10
18.128
 20
4.4483
 30
0.0
 11
17.9667
 21
4.1466
 31
0.0
  0
LINE
  8
0
 10
18.0917
 20
4.4546
 30
0.0
 11
17.9413
 21
4.1733
 31
0.0
  0
TEXT
  8
0
 10
17.7408
 20
4.6031
 30
0.0
 40
0.09
  1
12
  7
ROMAND
  0
POLYLINE
  8
0
 66
     1
 10
0.0
 20
0.0
 30
0.0
 70
     1
 40
0.02
 41
0.02
  0
VERTEX
  8
0
 10
17.9946
 20
4.5988
 30
0.0
 42
1.0
  0
VERTEX
  8
0
 10
17.9998
 20
4.5794
 30
0.0
 42
1.0
  0
SEQEND
  8
0
  0
TEXT
  8
0
 10
17.9936
 20
4.652
 30
0.0
 40
0.09
  1
10
  7
ROMAND
  0
POLYLINE
  8
0
 66
     1
 10
0.0
 20
0.0
 30
0.0
 70
     1
 40
0.02
 41
0.02
  0
VERTEX
  8
0
 10
18.08
 20
4.61
 30
0.0
 42
1.0
  0
VERTEX
  8
0
 10
18.08
 20
4.59
 30
0.0
 42
1.0
  0
SEQEND
  8
0
  0
POLYLINE
  8
0
 66
     1
 10
0.0
 20
0.0
 30
0.0
 70
     1
 40
0.02
 41
0.02
  0
VERTEX
  8
0
 10
18.1654
 20
4.5988
 30
0.0
 42
1.0
  0
VERTEX
  8
0
 10
18.1602
 20
4.5794
 30
0.0
 42
1.0
  0
SEQEND
  8
0
  0
TEXT
  8
0
 10
18.3757
 20
4.4361
 30
0.0
 40
0.09
  1
6
  7
ROMAND
  0
POLYLINE
  8
0
 66
     1
 10
0.0
 20
0.0
 30
0.0
 70
     1
 40
0.02
 41
0.02
  0
VERTEX
  8
0
 10
18.3658
 20
4.445
 30
0.0
 42
1.0
  0
VERTEX
  8
0
 10
18.3485
 20
4.435
 30
0.0
 42
1.0
  0
SEQEND
  8
0
  0
POLYLINE
  8
0
 66
     1
 10
0.0
 20
0.0
 30
0.0
 70
     1
 40
0.02
 41
0.02
  0
VERTEX
  8
0
 10
18.3988
 20
4.3654
 30
0.0
 42
1.0
  0
VERTEX
  8
0
 10
18.3794
 20
4.3602
 30
0.0
 42
1.0
  0
SEQEND
  8
0
  0
POLYLINE
  8
0
 66
     1
 10
0.0
 20
0.0
 30
0.0
 70
     1
 40
0.02
 41
0.02
  0
VERTEX
  8
0
 10
18.41
 20
4.28
 30
0.0
 42
1.0
  0
VERTEX
  8
0
 10
18.39
 20
4.28
 30
0.0
 42
1.0
  0
SEQEND
  8
0
  0
POLYLINE
  8
0
 66
     1
 10
0.0
 20
0.0
 30
0.0
 70
     1
 40
0.02
 41
0.02
  0
VERTEX
  8
0
 10
18.3988
 20
4.1946
 30
0.0
 42
1.0
  0
VERTEX
  8
0
 10
18.3794
 20
4.1998
 30
0.0
 42
1.0
  0
SEQEND
  8
0
  0
POLYLINE
  8
0
 66
     1
 10
0.0
 20
0.0
 30
0.0
 70
     1
 40
0.02
 41
0.02
  0
VERTEX
  8
0
 10
18.3133
 20
4.5133
 30
0.0
 42
1.0
  0
VERTEX
  8
0
 10
18.2992
 20
4.4992
 30
0.0
 42
1.0
  0
SEQEND
  8
0
  0
TEXT
  8
0
 10
18.2546
 20
4.5909
 30
0.0
 40
0.09
  1
8
  7
ROMAND
  0
CIRCLE
  8
0
 10
18.305
 20
4.83
 30
0.0
 40
0.0625
  0
ARC
  8
0
 10
18.305
 20
4.83
 30
0.0
 40
0.039
 50
90.0
 51
180.0
  0
CIRCLE
  8
0
 10
18.305
 20
5.03
 30
0.0
 40
0.0625
  0
ARC
  8
0
 10
18.305
 20
5.03
 30
0.0
 40
0.039
 50
90.0
 51
180.0
  0
CIRCLE
  8
0
 10
18.305
 20
5.23
 30
0.0
 40
0.0625
  0
ARC
  8
0
 10
18.305
 20
5.23
 30
0.0
 40
0.039
 50
90.0
 51
180.0
  0
CIRCLE
  8
0
 10
18.305
 20
5.43
 30
0.0
 40
0.0625
  0
ARC
  8
0
 10
18.305
 20
5.43
 30
0.0
 40
0.039
 50
90.0
 51
180.0
  0
CIRCLE
  8
0
 10
18.805
 20
5.43
 30
0.0
 40
0.0625
  0
ARC
  8
0
 10
18.805
 20
5.43
 30
0.0
 40
0.039
 50
90.0
 51
180.0
  0
CIRCLE
  8
0
 10
18.805
 20
5.23
 30
0.0
 40
0.0625
  0
ARC
  8
0
 10
18.805
 20
5.23
 30
0.0
 40
0.039
 50
90.0
 51
180.0
  0
CIRCLE
  8
0
 10
18.805
 20
5.03
 30
0.0
 40
0.0625
  0
ARC
  8
0
 10
18.805
 20
5.03
 30
0.0
 40
0.039
 50
90.0
 51
180.0
  0
CIRCLE
  8
0
 10
18.805
 20
4.83
 30
0.0
 40
0.0625
  0
ARC
  8
0
 10
18.805
 20
4.83
 30
0.0
 40
0.039
 50
90.0
 51
180.0
  0
CIRCLE
  8
0
 10
19.455
 20
5.23
 30
0.0
 40
0.0625
  0
ARC
  8
0
 10
19.455
 20
5.23
 30
0.0
 40
0.039
 50
90.0
 51
180.0
  0
CIRCLE
  8
0
 10
19.205
 20
5.03
 30
0.0
 40
0.0625
  0
ARC
  8
0
 10
19.205
 20
5.03
 30
0.0
 40
0.039
 50
90.0
 51
180.0
  0
CIRCLE
  8
0
 10
19.205
 20
4.83
 30
0.0
 40
0.0625
  0
ARC
  8
0
 10
19.205
 20
4.83
 30
0.0
 40
0.039
 50
90.0
 51
180.0
  0
CIRCLE
  8
0
 10
19.705
 20
4.83
 30
0.0
 40
0.0625
  0
ARC
  8
0
 10
19.705
 20
4.83
 30
0.0
 40
0.039
 50
90.0
 51
180.0
  0
CIRCLE
  8
0
 10
19.705
 20
5.03
 30
0.0
 40
0.0625
  0
ARC
  8
0
 10
19.705
 20
5.03
 30
0.0
 40
0.039
 50
90.0
 51
180.0
  0
CIRCLE
  8
0
 10
20.105
 20
5.43
 30
0.0
 40
0.0625
  0
ARC
  8
0
 10
20.105
 20
5.43
 30
0.0
 40
0.039
 50
90.0
 51
180.0
  0
CIRCLE
  8
0
 10
20.105
 20
5.23
 30
0.0
 40
0.0625
  0
ARC
  8
0
 10
20.105
 20
5.23
 30
0.0
 40
0.039
 50
90.0
 51
180.0
  0
CIRCLE
  8
0
 10
20.105
 20
5.03
 30
0.0
 40
0.0625
  0
ARC
  8
0
 10
20.105
 20
5.03
 30
0.0
 40
0.039
 50
90.0
 51
180.0
  0
CIRCLE
  8
0
 10
20.105
 20
4.83
 30
0.0
 40
0.0625
  0
ARC
  8
0
 10
20.105
 20
4.83
 30
0.0
 40
0.039
 50
90.0
 51
180.0
  0
CIRCLE
  8
0
 10
20.605
 20
5.43
 30
0.0
 40
0.0625
  0
ARC
  8
0
 10
20.605
 20
5.43
 30
0.0
 40
0.039
 50
90.0
 51
180.0
  0
CIRCLE
  8
0
 10
20.605
 20
5.23
 30
0.0
 40
0.0625
  0
ARC
  8
0
 10
20.605
 20
5.23
 30
0.0
 40
0.039
 50
90.0
 51
180.0
  0
CIRCLE
  8
0
 10
20.605
 20
5.03
 30
0.0
 40
0.0625
  0
ARC
  8
0
 10
20.605
 20
5.03
 30
0.0
 40
0.039
 50
90.0
 51
180.0
  0
CIRCLE
  8
0
 10
20.605
 20
4.83
 30
0.0
 40
0.0625
  0
ARC
  8
0
 10
20.605
 20
4.83
 30
0.0
 40
0.039
 50
90.0
 51
180.0
  0
TEXT
  8
0
 10
18.4395
 20
5.3955
 30
0.0
 40
0.072
  1
CLIP
  7
ROMAND
  0
TEXT
  8
0
 10
18.3751
 20
5.1925
 30
0.0
 40
0.072
  1
-10dB
  7
ROMAND
  0
TEXT
  8
0
 10
18.3751
 20
4.9923
 30
0.0
 40
0.072
  1
-20dB
  7
ROMAND
  0
TEXT
  8
0
 10
18.4693
 20
4.7948
 30
0.0
 40
0.072
  1
SIG
  7
ROMAND
  0
TEXT
  8
0
 10
19.3155
 20
4.9864
 30
0.0
 40
0.072
  1
BRDG
  7
ROMAND
  0
TEXT
  8
0
 10
19.357
 20
4.7922
 30
0.0
 40
0.072
  1
PAR
  7
ROMAND
  0
TEXT
  8
0
 10
19.271
 20
5.3918
 30
0.0
 40
0.072
  1
POWER
  7
ROMAND
  0
TEXT
  8
0
 10
19.0877
 20
5.2005
 30
0.0
 40
0.072
  1
1&2
  7
ROMAND
  0
TEXT
  8
0
 10
19.5993
 20
5.1932
 30
0.0
 40
0.072
  1
3&4
  7
ROMAND
  0
TEXT
  8
0
 10
20.2693
 20
4.7948
 30
0.0
 40
0.072
  1
SIG
  7
ROMAND
  0
TEXT
  8
0
 10
20.1751
 20
4.9923
 30
0.0
 40
0.072
  1
-20dB
  7
ROMAND
  0
TEXT
  8
0
 10
20.1751
 20
5.1925
 30
0.0
 40
0.072
  1
-10dB
  7
ROMAND
  0
TEXT
  8
0
 10
20.2395
 20
5.3955
 30
0.0
 40
0.072
  1
CLIP
  7
ROMAND
  0
POLYLINE
  8
0
 66
     1
 10
0.0
 20
0.0
 30
0.0
 40
0.01
 41
0.01
  0
VERTEX
  8
0
 10
19.455
 20
5.3689
 30
0.0
  0
VERTEX
  8
0
 10
19.455
 20
5.3183
 30
0.0
  0
SEQEND
  8
0
  0
POLYLINE
  8
0
 66
     1
 10
0.0
 20
0.0
 30
0.0
 40
0.01
 41
0.01
  0
VERTEX
  8
0
 10
19.705
 20
5.1707
 30
0.0
  0
VERTEX
  8
0
 10
19.705
 20
5.1201
 30
0.0
  0
SEQEND
  8
0
  0
POLYLINE
  8
0
 66
     1
 10
0.0
 20
0.0
 30
0.0
 40
0.01
 41
0.01
  0
VERTEX
  8
0
 10
19.2047
 20
5.1707
 30
0.0
  0
VERTEX
  8
0
 10
19.2047
 20
5.1201
 30
0.0
  0
SEQEND
  8
0
  0
TEXT
  8
0
 10
17.8461
 20
5.3742
 30
0.0
 40
0.125
  1
CH1
  7
ROMAND
  0
TEXT
  8
0
 10
18.9179
 20
5.3742
 30
0.0
 40
0.125
  1
2
  7
ROMAND
  0
TEXT
  8
0
 10
19.8913
 20
5.3742
 30
0.0
 40
0.125
  1
3
  7
ROMAND
  0
TEXT
  8
0
 10
20.7404
 20
5.3742
 30
0.0
 40
0.125
  1
CH4
  7
ROMAND
  0
LINE
  8
0
 10
8.417
 20
9.199
 30
0.0
 11
8.417
 21
9.649
 31
0.0
  0
LINE
  8
0
 10
8.367
 20
9.5312
 30
0.0
 11
8.367
 21
9.2112
 31
0.0
  0
LINE
  8
0
 10
7.767
 20
9.5312
 30
0.0
 11
7.767
 21
9.2112
 31
0.0
  0
LINE
  8
0
 10
7.717
 20
9.199
 30
0.0
 11
7.717
 21
9.649
 31
0.0
  0
ARC
  8
0
 10
8.267
 20
9.3712
 30
0.0
 40
0.125
 50
230.0382
 51
309.9618
  0
LINE
  8
0
 10
7.767
 20
9.2112
 30
0.0
 11
8.367
 21
9.2112
 31
0.0
  0
LINE
  8
0
 10
7.717
 20
9.199
 30
0.0
 11
8.417
 21
9.199
 31
0.0
  0
ARC
  8
0
 10
7.867
 20
9.3712
 30
0.0
 40
0.125
 50
230.0382
 51
309.9618
  0
LINE
  8
0
 10
7.767
 20
9.2754
 30
0.0
 11
7.7867
 21
9.2754
 31
0.0
  0
LINE
  8
0
 10
8.1473
 20
9.2754
 30
0.0
 11
8.1867
 21
9.2754
 31
0.0
  0
LINE
  8
0
 10
7.9473
 20
9.2754
 30
0.0
 11
7.9867
 21
9.2754
 31
0.0
  0
ARC
  8
0
 10
8.067
 20
9.3712
 30
0.0
 40
0.125
 50
230.0382
 51
309.9618
  0
LINE
  8
0
 10
8.3473
 20
9.2754
 30
0.0
 11
8.367
 21
9.2754
 31
0.0
  0
LINE
  8
0
 10
8.2064
 20
9.4962
 30
0.0
 11
8.3276
 21
9.4962
 31
0.0
  0
LINE
  8
0
 10
7.767
 20
9.6679
 30
0.0
 11
8.367
 21
9.6679
 31
0.0
  0
LINE
  8
0
 10
7.767
 20
9.5312
 30
0.0
 11
8.367
 21
9.5312
 31
0.0
  0
LINE
  8
0
 10
7.767
 20
9.8679
 30
0.0
 11
8.367
 21
9.8679
 31
0.0
  0
POLYLINE
  8
0
 66
     1
 10
0.0
 20
0.0
 30
0.0
 70
     1
  0
VERTEX
  8
0
 10
8.2857
 20
9.3525
 30
0.0
  0
VERTEX
  8
0
 10
8.2857
 20
9.3899
 30
0.0
  0
VERTEX
  8
0
 10
8.2483
 20
9.3899
 30
0.0
  0
VERTEX
  8
0
 10
8.2483
 20
9.3525
 30
0.0
  0
SEQEND
  8
0
  0
LINE
  8
0
 10
7.717
 20
9.649
 30
0.0
 11
8.417
 21
9.649
 31
0.0
  0
LINE
  8
0
 10
8.167
 20
9.6679
 30
0.0
 11
8.167
 21
9.8679
 31
0.0
  0
LINE
  8
0
 10
7.967
 20
9.6679
 30
0.0
 11
7.967
 21
9.8679
 31
0.0
  0
LINE
  8
0
 10
7.767
 20
9.6679
 30
0.0
 11
7.767
 21
9.8679
 31
0.0
  0
POLYLINE
  8
0
 66
     1
 10
0.0
 20
0.0
 30
0.0
 40
0.024
 41
0.024
  0
VERTEX
  8
0
 10
7.8665
 20
9.8289
 30
0.0
  0
VERTEX
  8
0
 10
7.8665
 20
9.7059
 30
0.0
  0
SEQEND
  8
0
  0
POLYLINE
  8
0
 66
     1
 10
0.0
 20
0.0
 30
0.0
 40
0.024
 41
0.024
  0
VERTEX
  8
0
 10
8.067
 20
9.8294
 30
0.0
  0
VERTEX
  8
0
 10
8.067
 20
9.7064
 30
0.0
  0
SEQEND
  8
0
  0
LINE
  8
0
 10
7.9276
 20
9.4808
 30
0.0
 11
8.0064
 21
9.4808
 31
0.0
  0
LINE
  8
0
 10
7.8064
 20
9.4962
 30
0.0
 11
7.9276
 21
9.4962
 31
0.0
  0
POLYLINE
  8
0
 66
     1
 10
0.0
 20
0.0
 30
0.0
 70
     1
  0
VERTEX
  8
0
 10
7.8857
 20
9.3525
 30
0.0
  0
VERTEX
  8
0
 10
7.8857
 20
9.3899
 30
0.0
  0
VERTEX
  8
0
 10
7.8483
 20
9.3899
 30
0.0
  0
VERTEX
  8
0
 10
7.8483
 20
9.3525
 30
0.0
  0
SEQEND
  8
0
  0
LINE
  8
0
 10
7.767
 20
9.4808
 30
0.0
 11
7.8064
 21
9.4808
 31
0.0
  0
LINE
  8
0
 10
7.8064
 20
9.4808
 30
0.0
 11
7.8064
 21
9.4962
 31
0.0
  0
LINE
  8
0
 10
7.9276
 20
9.4808
 30
0.0
 11
7.9276
 21
9.4962
 31
0.0
  0
LINE
  8
0
 10
8.0064
 20
9.4962
 30
0.0
 11
8.1276
 21
9.4962
 31
0.0
  0
LINE
  8
0
 10
8.1276
 20
9.4808
 30
0.0
 11
8.2064
 21
9.4808
 31
0.0
  0
POLYLINE
  8
0
 66
     1
 10
0.0
 20
0.0
 30
0.0
 70
     1
  0
VERTEX
  8
0
 10
8.0857
 20
9.3525
 30
0.0
  0
VERTEX
  8
0
 10
8.0857
 20
9.3899
 30
0.0
  0
VERTEX
  8
0
 10
8.0483
 20
9.3899
 30
0.0
  0
VERTEX
  8
0
 10
8.0483
 20
9.3525
 30
0.0
  0
SEQEND
  8
0
  0
LINE
  8
0
 10
8.2064
 20
9.4808
 30
0.0
 11
8.2064
 21
9.4962
 31
0.0
  0
LINE
  8
0
 10
8.1276
 20
9.4808
 30
0.0
 11
8.1276
 21
9.4962
 31
0.0
  0
LINE
  8
0
 10
8.0064
 20
9.4808
 30
0.0
 11
8.0064
 21
9.4962
 31
0.0
  0
POLYLINE
  8
0
 66
     1
 10
0.0
 20
0.0
 30
0.0
 40
0.024
 41
0.024
  0
VERTEX
  8
0
 10
7.8055
 20
9.7679
 30
0.0
  0
VERTEX
  8
0
 10
7.9285
 20
9.7679
 30
0.0
  0
SEQEND
  8
0
  0
LINE
  8
0
 10
8.367
 20
9.6679
 30
0.0
 11
8.367
 21
9.8679
 31
0.0
  0
LINE
  8
0
 10
8.3276
 20
9.4808
 30
0.0
 11
8.367
 21
9.4808
 31
0.0
  0
LINE
  8
0
 10
8.3276
 20
9.4808
 30
0.0
 11
8.3276
 21
9.4962
 31
0.0
  0
ARC
  8
0
 10
6.1984
 20
10.599
 30
0.0
 40
0.082
 50
132.79
 51
227.21
  0
ARC
  8
0
 10
5.9404
 20
10.599
 30
0.0
 40
0.082
 50
312.79
 51
47.21
  0
CIRCLE
  8
0
 10
6.0694
 20
10.599
 30
0.0
 40
0.11
  0
LINE
  8
0
 10
5.867
 20
10.499
 30
0.0
 11
5.867
 21
10.949
 31
0.0
  0
LINE
  8
0
 10
5.817
 20
10.8312
 30
0.0
 11
5.817
 21
10.5112
 31
0.0
  0
LINE
  8
0
 10
5.217
 20
10.8312
 30
0.0
 11
5.217
 21
10.5112
 31
0.0
  0
LINE
  8
0
 10
5.167
 20
10.499
 30
0.0
 11
5.167
 21
10.949
 31
0.0
  0
ARC
  8
0
 10
5.717
 20
10.6712
 30
0.0
 40
0.125
 50
230.0382
 51
309.9618
  0
LINE
  8
0
 10
5.217
 20
10.5112
 30
0.0
 11
5.817
 21
10.5112
 31
0.0
  0
LINE
  8
0
 10
5.167
 20
10.499
 30
0.0
 11
5.867
 21
10.499
 31
0.0
  0
ARC
  8
0
 10
5.317
 20
10.6712
 30
0.0
 40
0.125
 50
230.0382
 51
309.9618
  0
LINE
  8
0
 10
5.217
 20
10.5754
 30
0.0
 11
5.2367
 21
10.5754
 31
0.0
  0
LINE
  8
0
 10
5.5973
 20
10.5754
 30
0.0
 11
5.6367
 21
10.5754
 31
0.0
  0
LINE
  8
0
 10
5.3973
 20
10.5754
 30
0.0
 11
5.4367
 21
10.5754
 31
0.0
  0
ARC
  8
0
 10
5.517
 20
10.6712
 30
0.0
 40
0.125
 50
230.0382
 51
309.9618
  0
ARC
  8
0
 10
6.0694
 20
10.47
 30
0.0
 40
0.082
 50
42.79
 51
137.21
  0
ARC
  8
0
 10
6.0694
 20
10.599
 30
0.0
 40
0.095
 50
219.092
 51
230.908
  0
LINE
  8
0
 10
5.7973
 20
10.5754
 30
0.0
 11
5.817
 21
10.5754
 31
0.0
  0
ARC
  8
0
 10
6.0694
 20
10.599
 30
0.0
 40
0.095
 50
309.092
 51
320.908
  0
LINE
  8
0
 10
5.6564
 20
10.7962
 30
0.0
 11
5.7776
 21
10.7962
 31
0.0
  0
LINE
  8
0
 10
5.217
 20
10.9679
 30
0.0
 11
5.817
 21
10.9679
 31
0.0
  0
LINE
  8
0
 10
5.217
 20
10.8312
 30
0.0
 11
5.817
 21
10.8312
 31
0.0
  0
LINE
  8
0
 10
5.217
 20
11.1679
 30
0.0
 11
5.817
 21
11.1679
 31
0.0
  0
POLYLINE
  8
0
 66
     1
 10
0.0
 20
0.0
 30
0.0
 70
     1
  0
VERTEX
  8
0
 10
5.7357
 20
10.6525
 30
0.0
  0
VERTEX
  8
0
 10
5.7357
 20
10.6899
 30
0.0
  0
VERTEX
  8
0
 10
5.6983
 20
10.6899
 30
0.0
  0
VERTEX
  8
0
 10
5.6983
 20
10.6525
 30
0.0
  0
SEQEND
  8
0
  0
LINE
  8
0
 10
5.167
 20
10.949
 30
0.0
 11
5.867
 21
10.949
 31
0.0
  0
LINE
  8
0
 10
5.617
 20
10.9679
 30
0.0
 11
5.617
 21
11.1679
 31
0.0
  0
LINE
  8
0
 10
5.417
 20
10.9679
 30
0.0
 11
5.417
 21
11.1679
 31
0.0
  0
LINE
  8
0
 10
5.217
 20
10.9679
 30
0.0
 11
5.217
 21
11.1679
 31
0.0
  0
POLYLINE
  8
0
 66
     1
 10
0.0
 20
0.0
 30
0.0
 40
0.024
 41
0.024
  0
VERTEX
  8
0
 10
5.3165
 20
11.1289
 30
0.0
  0
VERTEX
  8
0
 10
5.3165
 20
11.0059
 30
0.0
  0
SEQEND
  8
0
  0
POLYLINE
  8
0
 66
     1
 10
0.0
 20
0.0
 30
0.0
 40
0.024
 41
0.024
  0
VERTEX
  8
0
 10
5.517
 20
11.1294
 30
0.0
  0
VERTEX
  8
0
 10
5.517
 20
11.0064
 30
0.0
  0
SEQEND
  8
0
  0
LINE
  8
0
 10
5.3776
 20
10.7808
 30
0.0
 11
5.4564
 21
10.7808
 31
0.0
  0
LINE
  8
0
 10
5.2564
 20
10.7962
 30
0.0
 11
5.3776
 21
10.7962
 31
0.0
  0
POLYLINE
  8
0
 66
     1
 10
0.0
 20
0.0
 30
0.0
 70
     1
  0
VERTEX
  8
0
 10
5.3357
 20
10.6525
 30
0.0
  0
VERTEX
  8
0
 10
5.3357
 20
10.6899
 30
0.0
  0
VERTEX
  8
0
 10
5.2983
 20
10.6899
 30
0.0
  0
VERTEX
  8
0
 10
5.2983
 20
10.6525
 30
0.0
  0
SEQEND
  8
0
  0
LINE
  8
0
 10
5.217
 20
10.7808
 30
0.0
 11
5.2564
 21
10.7808
 31
0.0
  0
LINE
  8
0
 10
5.2564
 20
10.7808
 30
0.0
 11
5.2564
 21
10.7962
 31
0.0
  0
LINE
  8
0
 10
5.3776
 20
10.7808
 30
0.0
 11
5.3776
 21
10.7962
 31
0.0
  0
LINE
  8
0
 10
5.4564
 20
10.7962
 30
0.0
 11
5.5776
 21
10.7962
 31
0.0
  0
LINE
  8
0
 10
5.5776
 20
10.7808
 30
0.0
 11
5.6564
 21
10.7808
 31
0.0
  0
POLYLINE
  8
0
 66
     1
 10
0.0
 20
0.0
 30
0.0
 70
     1
  0
VERTEX
  8
0
 10
5.5357
 20
10.6525
 30
0.0
  0
VERTEX
  8
0
 10
5.5357
 20
10.6899
 30
0.0
  0
VERTEX
  8
0
 10
5.4983
 20
10.6899
 30
0.0
  0
VERTEX
  8
0
 10
5.4983
 20
10.6525
 30
0.0
  0
SEQEND
  8
0
  0
LINE
  8
0
 10
5.6564
 20
10.7808
 30
0.0
 11
5.6564
 21
10.7962
 31
0.0
  0
LINE
  8
0
 10
5.5776
 20
10.7808
 30
0.0
 11
5.5776
 21
10.7962
 31
0.0
  0
LINE
  8
0
 10
5.4564
 20
10.7808
 30
0.0
 11
5.4564
 21
10.7962
 31
0.0
  0
POLYLINE
  8
0
 66
     1
 10
0.0
 20
0.0
 30
0.0
 40
0.024
 41
0.024
  0
VERTEX
  8
0
 10
5.2555
 20
11.0679
 30
0.0
  0
VERTEX
  8
0
 10
5.3785
 20
11.0679
 30
0.0
  0
SEQEND
  8
0
  0
LINE
  8
0
 10
5.817
 20
10.9679
 30
0.0
 11
5.817
 21
11.1679
 31
0.0
  0
ARC
  8
0
 10
6.0694
 20
10.728
 30
0.0
 40
0.082
 50
222.79
 51
317.21
  0
ARC
  8
0
 10
6.0694
 20
10.599
 30
0.0
 40
0.095
 50
129.092
 51
140.908
  0
LINE
  8
0
 10
5.7776
 20
10.7808
 30
0.0
 11
5.817
 21
10.7808
 31
0.0
  0
LINE
  8
0
 10
5.7776
 20
10.7808
 30
0.0
 11
5.7776
 21
10.7962
 31
0.0
  0
CIRCLE
  8
0
 10
6.267
 20
10.749
 30
0.0
 40
0.055
  0
ARC
  8
0
 10
6.0694
 20
10.599
 30
0.0
 40
0.095
 50
39.092
 51
50.908
  0
CIRCLE
  8
0
 10
6.267
 20
10.749
 30
0.0
 40
0.1
  0
LINE
  8
0
 10
9.0191
 20
10.8683
 30
0.0
 11
9.0791
 21
10.8683
 31
0.0
  0
LINE
  8
0
 10
8.5356
 20
10.973
 30
0.0
 11
9.616
 21
10.973
 31
0.0
  0
LINE
  8
0
 10
8.517
 20
11.029
 30
0.0
 11
9.642
 21
11.029
 31
0.0
  0
LINE
  8
0
 10
9.0191
 20
10.7183
 30
0.0
 11
9.0791
 21
10.7183
 31
0.0
  0
LINE
  8
0
 10
8.5356
 20
10.6442
 30
0.0
 11
9.616
 21
10.6442
 31
0.0
  0
LINE
  8
0
 10
8.517
 20
10.599
 30
0.0
 11
9.642
 21
10.599
 31
0.0
  0
POLYLINE
  8
0
 66
     1
 10
0.0
 20
0.0
 30
0.0
 40
0.04
 41
0.04
  0
VERTEX
  8
0
 10
9.0491
 20
10.7183
 30
0.0
  0
VERTEX
  8
0
 10
9.0491
 20
10.7787
 30
0.0
  0
SEQEND
  8
0
  0
LINE
  8
0
 10
7.717
 20
10.499
 30
0.0
 11
7.717
 21
10.949
 31
0.0
  0
LINE
  8
0
 10
7.767
 20
10.8312
 30
0.0
 11
7.767
 21
10.5112
 31
0.0
  0
LINE
  8
0
 10
8.367
 20
10.8312
 30
0.0
 11
8.367
 21
10.5112
 31
0.0
  0
LINE
  8
0
 10
8.417
 20
10.499
 30
0.0
 11
8.417
 21
10.949
 31
0.0
  0
ARC
  8
0
 10
7.6157
 20
10.599
 30
0.0
 40
0.082
 50
132.79
 51
227.21
  0
CIRCLE
  8
0
 10
7.4867
 20
10.599
 30
0.0
 40
0.11
  0
ARC
  8
0
 10
7.3577
 20
10.599
 30
0.0
 40
0.082
 50
312.79
 51
47.21
  0
ARC
  8
0
 10
7.4867
 20
10.599
 30
0.0
 40
0.095
 50
309.092
 51
320.908
  0
ARC
  8
0
 10
7.4867
 20
10.599
 30
0.0
 40
0.095
 50
219.092
 51
230.908
  0
ARC
  8
0
 10
7.4867
 20
10.47
 30
0.0
 40
0.082
 50
42.79
 51
137.21
  0
LINE
  8
0
 10
7.717
 20
10.499
 30
0.0
 11
8.417
 21
10.499
 31
0.0
  0
ARC
  8
0
 10
8.067
 20
10.6712
 30
0.0
 40
0.125
 50
230.0382
 51
309.9618
  0
LINE
  8
0
 10
7.767
 20
10.5112
 30
0.0
 11
8.367
 21
10.5112
 31
0.0
  0
LINE
  8
0
 10
7.9473
 20
10.5754
 30
0.0
 11
7.9867
 21
10.5754
 31
0.0
  0
LINE
  8
0
 10
7.767
 20
10.5754
 30
0.0
 11
7.7867
 21
10.5754
 31
0.0
  0
ARC
  8
0
 10
7.867
 20
10.6712
 30
0.0
 40
0.125
 50
230.0382
 51
309.9618
  0
LINE
  8
0
 10
8.3473
 20
10.5754
 30
0.0
 11
8.367
 21
10.5754
 31
0.0
  0
LINE
  8
0
 10
8.1473
 20
10.5754
 30
0.0
 11
8.1867
 21
10.5754
 31
0.0
  0
ARC
  8
0
 10
8.267
 20
10.6712
 30
0.0
 40
0.125
 50
230.0382
 51
309.9618
  0
ARC
  8
0
 10
7.014
 20
10.849
 30
0.0
 40
0.05
 50
350.895
 51
90.0
  0
ARC
  8
0
 10
6.982
 20
10.649
 30
0.0
 40
0.05
 50
270.0
 51
350.895
  0
LINE
  8
0
 10
7.063
 20
10.841
 30
0.0
 11
7.031
 21
10.641
 31
0.0
  0
LINE
  8
0
 10
6.491
 20
10.899
 30
0.0
 11
7.014
 21
10.899
 31
0.0
  0
CIRCLE
  8
0
 10
6.709
 20
10.749
 30
0.0
 40
0.02
  0
LINE
  8
0
 10
6.523
 20
10.599
 30
0.0
 11
6.982
 21
10.599
 31
0.0
  0
ARC
  8
0
 10
6.491
 20
10.849
 30
0.0
 40
0.05
 50
90.0
 51
189.105
  0
CIRCLE
  8
0
 10
6.621
 20
10.749
 30
0.0
 40
0.02
  0
ARC
  8
0
 10
6.523
 20
10.649
 30
0.0
 40
0.05
 50
189.105
 51
270.0
  0
CIRCLE
  8
0
 10
6.665
 20
10.674
 30
0.0
 40
0.02
  0
CIRCLE
  8
0
 10
6.577
 20
10.674
 30
0.0
 40
0.02
  0
LINE
  8
0
 10
6.442
 20
10.841
 30
0.0
 11
6.474
 21
10.641
 31
0.0
  0
CIRCLE
  8
0
 10
6.665
 20
10.824
 30
0.0
 40
0.02
  0
CIRCLE
  8
0
 10
6.577
 20
10.824
 30
0.0
 40
0.02
  0
CIRCLE
  8
0
 10
6.796
 20
10.749
 30
0.0
 40
0.02
  0
CIRCLE
  8
0
 10
6.884
 20
10.749
 30
0.0
 40
0.02
  0
CIRCLE
  8
0
 10
6.971
 20
10.749
 30
0.0
 40
0.02
  0
CIRCLE
  8
0
 10
6.84
 20
10.674
 30
0.0
 40
0.02
  0
CIRCLE
  8
0
 10
6.927
 20
10.674
 30
0.0
 40
0.02
  0
CIRCLE
  8
0
 10
6.752
 20
10.674
 30
0.0
 40
0.02
  0
CIRCLE
  8
0
 10
6.84
 20
10.824
 30
0.0
 40
0.02
  0
CIRCLE
  8
0
 10
6.927
 20
10.824
 30
0.0
 40
0.02
  0
CIRCLE
  8
0
 10
6.752
 20
10.824
 30
0.0
 40
0.02
  0
CIRCLE
  8
0
 10
7.237
 20
10.749
 30
0.0
 40
0.055
  0
CIRCLE
  8
0
 10
7.237
 20
10.749
 30
0.0
 40
0.1
  0
ARC
  8
0
 10
7.4867
 20
10.599
 30
0.0
 40
0.095
 50
39.092
 51
50.908
  0
ARC
  8
0
 10
7.4867
 20
10.599
 30
0.0
 40
0.095
 50
129.092
 51
140.908
  0
ARC
  8
0
 10
7.4867
 20
10.728
 30
0.0
 40
0.082
 50
222.79
 51
317.21
  0
LINE
  8
0
 10
7.717
 20
10.949
 30
0.0
 11
8.417
 21
10.949
 31
0.0
  0
LINE
  8
0
 10
8.367
 20
10.9679
 30
0.0
 11
8.367
 21
11.1679
 31
0.0
  0
POLYLINE
  8
0
 66
     1
 10
0.0
 20
0.0
 30
0.0
 40
0.024
 41
0.024
  0
VERTEX
  8
0
 10
8.067
 20
11.1294
 30
0.0
  0
VERTEX
  8
0
 10
8.067
 20
11.0064
 30
0.0
  0
SEQEND
  8
0
  0
POLYLINE
  8
0
 66
     1
 10
0.0
 20
0.0
 30
0.0
 40
0.024
 41
0.024
  0
VERTEX
  8
0
 10
7.8665
 20
11.1289
 30
0.0
  0
VERTEX
  8
0
 10
7.8665
 20
11.0059
 30
0.0
  0
SEQEND
  8
0
  0
LINE
  8
0
 10
7.767
 20
10.9679
 30
0.0
 11
7.767
 21
11.1679
 31
0.0
  0
LINE
  8
0
 10
7.967
 20
10.9679
 30
0.0
 11
7.967
 21
11.1679
 31
0.0
  0
LINE
  8
0
 10
8.167
 20
10.9679
 30
0.0
 11
8.167
 21
11.1679
 31
0.0
  0
LINE
  8
0
 10
8.0064
 20
10.7962
 30
0.0
 11
8.1276
 21
10.7962
 31
0.0
  0
LINE
  8
0
 10
7.767
 20
10.8312
 30
0.0
 11
8.367
 21
10.8312
 31
0.0
  0
LINE
  8
0
 10
7.767
 20
10.9679
 30
0.0
 11
8.367
 21
10.9679
 31
0.0
  0
LINE
  8
0
 10
8.0064
 20
10.7808
 30
0.0
 11
8.0064
 21
10.7962
 31
0.0
  0
LINE
  8
0
 10
7.9276
 20
10.7808
 30
0.0
 11
7.9276
 21
10.7962
 31
0.0
  0
LINE
  8
0
 10
7.8064
 20
10.7808
 30
0.0
 11
7.8064
 21
10.7962
 31
0.0
  0
LINE
  8
0
 10
7.767
 20
10.7808
 30
0.0
 11
7.8064
 21
10.7808
 31
0.0
  0
POLYLINE
  8
0
 66
     1
 10
0.0
 20
0.0
 30
0.0
 70
     1
  0
VERTEX
  8
0
 10
7.8857
 20
10.6525
 30
0.0
  0
VERTEX
  8
0
 10
7.8857
 20
10.6899
 30
0.0
  0
VERTEX
  8
0
 10
7.8483
 20
10.6899
 30
0.0
  0
VERTEX
  8
0
 10
7.8483
 20
10.6525
 30
0.0
  0
SEQEND
  8
0
  0
LINE
  8
0
 10
7.8064
 20
10.7962
 30
0.0
 11
7.9276
 21
10.7962
 31
0.0
  0
LINE
  8
0
 10
7.9276
 20
10.7808
 30
0.0
 11
8.0064
 21
10.7808
 31
0.0
  0
LINE
  8
0
 10
8.3276
 20
10.7808
 30
0.0
 11
8.3276
 21
10.7962
 31
0.0
  0
LINE
  8
0
 10
8.3276
 20
10.7808
 30
0.0
 11
8.367
 21
10.7808
 31
0.0
  0
LINE
  8
0
 10
8.1276
 20
10.7808
 30
0.0
 11
8.1276
 21
10.7962
 31
0.0
  0
LINE
  8
0
 10
8.2064
 20
10.7808
 30
0.0
 11
8.2064
 21
10.7962
 31
0.0
  0
POLYLINE
  8
0
 66
     1
 10
0.0
 20
0.0
 30
0.0
 70
     1
  0
VERTEX
  8
0
 10
8.0857
 20
10.6525
 30
0.0
  0
VERTEX
  8
0
 10
8.0857
 20
10.6899
 30
0.0
  0
VERTEX
  8
0
 10
8.0483
 20
10.6899
 30
0.0
  0
VERTEX
  8
0
 10
8.0483
 20
10.6525
 30
0.0
  0
SEQEND
  8
0
  0
LINE
  8
0
 10
8.1276
 20
10.7808
 30
0.0
 11
8.2064
 21
10.7808
 31
0.0
  0
POLYLINE
  8
0
 66
     1
 10
0.0
 20
0.0
 30
0.0
 70
     1
  0
VERTEX
  8
0
 10
8.2857
 20
10.6525
 30
0.0
  0
VERTEX
  8
0
 10
8.2857
 20
10.6899
 30
0.0
  0
VERTEX
  8
0
 10
8.2483
 20
10.6899
 30
0.0
  0
VERTEX
  8
0
 10
8.2483
 20
10.6525
 30
0.0
  0
SEQEND
  8
0
  0
LINE
  8
0
 10
8.2064
 20
10.7962
 30
0.0
 11
8.3276
 21
10.7962
 31
0.0
  0
LINE
  8
0
 10
7.767
 20
11.1679
 30
0.0
 11
8.367
 21
11.1679
 31
0.0
  0
POLYLINE
  8
0
 66
     1
 10
0.0
 20
0.0
 30
0.0
 40
0.024
 41
0.024
  0
VERTEX
  8
0
 10
7.8055
 20
11.0679
 30
0.0
  0
VERTEX
  8
0
 10
7.9285
 20
11.0679
 30
0.0
  0
SEQEND
  8
0
  0
LINE
  8
0
 10
8.517
 20
10.599
 30
0.0
 11
8.517
 21
11.029
 31
0.0
  0
TEXT
  8
0
 10
8.5486
 20
10.8897
 30
0.0
 40
0.06
  1
O
  7
ROMAND
  0
TEXT
  8
0
 10
8.62
 20
10.8882
 30
0.0
 40
0.06
  1
1
  7
ROMAND
  0
POLYLINE
  8
0
 66
     1
 10
0.0
 20
0.0
 30
0.0
 40
0.04
 41
0.04
  0
VERTEX
  8
0
 10
8.6491
 20
10.8079
 30
0.0
  0
VERTEX
  8
0
 10
8.6491
 20
10.8683
 30
0.0
  0
SEQEND
  8
0
  0
POLYLINE
  8
0
 66
     1
 10
0.0
 20
0.0
 30
0.0
 70
     1
  0
VERTEX
  8
0
 10
8.5785
 20
10.8029
 30
0.0
  0
VERTEX
  8
0
 10
8.5559
 20
10.7638
 30
0.0
  0
VERTEX
  8
0
 10
8.6011
 20
10.7638
 30
0.0
  0
SEQEND
  8
0
  0
TEXT
  8
0
 10
8.5495
 20
10.8248
 30
0.0
 40
0.06
  1
N
  7
ROMAND
  0
LINE
  8
0
 10
8.6191
 20
10.8683
 30
0.0
 11
8.6791
 21
10.8683
 31
0.0
  0
POLYLINE
  8
0
 66
     1
 10
0.0
 20
0.0
 30
0.0
 40
0.04
 41
0.04
  0
VERTEX
  8
0
 10
8.5785
 20
10.6587
 30
0.0
  0
VERTEX
  8
0
 10
8.5785
 20
10.7191
 30
0.0
  0
SEQEND
  8
0
  0
LINE
  8
0
 10
8.6191
 20
10.7183
 30
0.0
 11
8.6791
 21
10.7183
 31
0.0
  0
LINE
  8
0
 10
8.5356
 20
10.973
 30
0.0
 11
8.5356
 21
10.6442
 31
0.0
  0
LINE
  8
0
 10
8.5785
 20
10.7638
 30
0.0
 11
8.5785
 21
10.7191
 31
0.0
  0
LINE
  8
0
 10
8.6791
 20
10.7183
 30
0.0
 11
8.6791
 21
10.8683
 31
0.0
  0
LINE
  8
0
 10
8.6191
 20
10.7183
 30
0.0
 11
8.6191
 21
10.8683
 31
0.0
  0
TEXT
  8
0
 10
8.9164
 20
10.8882
 30
0.0
 40
0.06
  1
4
  7
ROMAND
  0
TEXT
  8
0
 10
8.8202
 20
10.8882
 30
0.0
 40
0.06
  1
3
  7
ROMAND
  0
LINE
  8
0
 10
8.9191
 20
10.8683
 30
0.0
 11
8.9791
 21
10.8683
 31
0.0
  0
POLYLINE
  8
0
 66
     1
 10
0.0
 20
0.0
 30
0.0
 40
0.04
 41
0.04
  0
VERTEX
  8
0
 10
8.8491
 20
10.8079
 30
0.0
  0
VERTEX
  8
0
 10
8.8491
 20
10.8683
 30
0.0
  0
SEQEND
  8
0
  0
LINE
  8
0
 10
8.8191
 20
10.8683
 30
0.0
 11
8.8791
 21
10.8683
 31
0.0
  0
TEXT
  8
0
 10
8.7206
 20
10.8882
 30
0.0
 40
0.06
  1
2
  7
ROMAND
  0
POLYLINE
  8
0
 66
     1
 10
0.0
 20
0.0
 30
0.0
 40
0.04
 41
0.04
  0
VERTEX
  8
0
 10
8.7491
 20
10.8079
 30
0.0
  0
VERTEX
  8
0
 10
8.7491
 20
10.8683
 30
0.0
  0
SEQEND
  8
0
  0
LINE
  8
0
 10
8.7191
 20
10.8683
 30
0.0
 11
8.7791
 21
10.8683
 31
0.0
  0
LINE
  8
0
 10
8.9191
 20
10.7183
 30
0.0
 11
8.9791
 21
10.7183
 31
0.0
  0
LINE
  8
0
 10
8.8191
 20
10.7183
 30
0.0
 11
8.8791
 21
10.7183
 31
0.0
  0
LINE
  8
0
 10
8.7191
 20
10.7183
 30
0.0
 11
8.7791
 21
10.7183
 31
0.0
  0
POLYLINE
  8
0
 66
     1
 10
0.0
 20
0.0
 30
0.0
 40
0.04
 41
0.04
  0
VERTEX
  8
0
 10
8.9491
 20
10.7183
 30
0.0
  0
VERTEX
  8
0
 10
8.9491
 20
10.7787
 30
0.0
  0
SEQEND
  8
0
  0
LINE
  8
0
 10
9.0191
 20
10.7183
 30
0.0
 11
9.0191
 21
10.8683
 31
0.0
  0
LINE
  8
0
 10
8.9791
 20
10.7183
 30
0.0
 11
8.9791
 21
10.8683
 31
0.0
  0
LINE
  8
0
 10
8.9191
 20
10.7183
 30
0.0
 11
8.9191
 21
10.8683
 31
0.0
  0
LINE
  8
0
 10
8.8191
 20
10.7183
 30
0.0
 11
8.8191
 21
10.8683
 31
0.0
  0
LINE
  8
0
 10
8.8791
 20
10.7183
 30
0.0
 11
8.8791
 21
10.8683
 31
0.0
  0
LINE
  8
0
 10
8.7791
 20
10.7183
 30
0.0
 11
8.7791
 21
10.8683
 31
0.0
  0
LINE
  8
0
 10
8.7191
 20
10.7183
 30
0.0
 11
8.7191
 21
10.8683
 31
0.0
  0
LINE
  8
0
 10
9.642
 20
10.599
 30
0.0
 11
9.642
 21
11.029
 31
0.0
  0
TEXT
  8
0
 10
9.318
 20
10.8896
 30
0.0
 40
0.06
  1
8
  7
ROMAND
  0
POLYLINE
  8
0
 66
     1
 10
0.0
 20
0.0
 30
0.0
 40
0.04
 41
0.04
  0
VERTEX
  8
0
 10
9.3491
 20
10.8079
 30
0.0
  0
VERTEX
  8
0
 10
9.3491
 20
10.8683
 30
0.0
  0
SEQEND
  8
0
  0
LINE
  8
0
 10
9.3191
 20
10.8683
 30
0.0
 11
9.3791
 21
10.8683
 31
0.0
  0
LINE
  8
0
 10
9.3191
 20
10.7183
 30
0.0
 11
9.3791
 21
10.7183
 31
0.0
  0
TEXT
  8
0
 10
9.2207
 20
10.8884
 30
0.0
 40
0.06
  1
7
  7
ROMAND
  0
LINE
  8
0
 10
9.2191
 20
10.8683
 30
0.0
 11
9.2791
 21
10.8683
 31
0.0
  0
TEXT
  8
0
 10
9.0239
 20
10.8882
 30
0.0
 40
0.06
  1
5
  7
ROMAND
  0
TEXT
  8
0
 10
9.1186
 20
10.8884
 30
0.0
 40
0.06
  1
6
  7
ROMAND
  0
LINE
  8
0
 10
9.1191
 20
10.8683
 30
0.0
 11
9.1791
 21
10.8683
 31
0.0
  0
LINE
  8
0
 10
9.2191
 20
10.7183
 30
0.0
 11
9.2791
 21
10.7183
 31
0.0
  0
LINE
  8
0
 10
9.1191
 20
10.7183
 30
0.0
 11
9.1791
 21
10.7183
 31
0.0
  0
POLYLINE
  8
0
 66
     1
 10
0.0
 20
0.0
 30
0.0
 40
0.04
 41
0.04
  0
VERTEX
  8
0
 10
9.2491
 20
10.7183
 30
0.0
  0
VERTEX
  8
0
 10
9.2491
 20
10.7787
 30
0.0
  0
SEQEND
  8
0
  0
LINE
  8
0
 10
9.3191
 20
10.7183
 30
0.0
 11
9.3191
 21
10.8683
 31
0.0
  0
LINE
  8
0
 10
9.2191
 20
10.7183
 30
0.0
 11
9.2191
 21
10.8683
 31
0.0
  0
LINE
  8
0
 10
9.2791
 20
10.7183
 30
0.0
 11
9.2791
 21
10.8683
 31
0.0
  0
LINE
  8
0
 10
9.1191
 20
10.7183
 30
0.0
 11
9.1191
 21
10.8683
 31
0.0
  0
LINE
  8
0
 10
9.0791
 20
10.7183
 30
0.0
 11
9.0791
 21
10.8683
 31
0.0
  0
LINE
  8
0
 10
9.1791
 20
10.7183
 30
0.0
 11
9.1791
 21
10.8683
 31
0.0
  0
POLYLINE
  8
0
 66
     1
 10
0.0
 20
0.0
 30
0.0
 40
0.04
 41
0.04
  0
VERTEX
  8
0
 10
9.1491
 20
10.7183
 30
0.0
  0
VERTEX
  8
0
 10
9.1491
 20
10.7787
 30
0.0
  0
SEQEND
  8
0
  0
TEXT
  8
0
 10
9.4859
 20
10.8874
 30
0.0
 40
0.06
  1
10
  7
ROMAND
  0
POLYLINE
  8
0
 66
     1
 10
0.0
 20
0.0
 30
0.0
 40
0.04
 41
0.04
  0
VERTEX
  8
0
 10
9.5491
 20
10.8079
 30
0.0
  0
VERTEX
  8
0
 10
9.5491
 20
10.8683
 30
0.0
  0
SEQEND
  8
0
  0
LINE
  8
0
 10
9.5191
 20
10.8683
 30
0.0
 11
9.5791
 21
10.8683
 31
0.0
  0
TEXT
  8
0
 10
9.4189
 20
10.8897
 30
0.0
 40
0.06
  1
9
  7
ROMAND
  0
POLYLINE
  8
0
 66
     1
 10
0.0
 20
0.0
 30
0.0
 40
0.04
 41
0.04
  0
VERTEX
  8
0
 10
9.4491
 20
10.8079
 30
0.0
  0
VERTEX
  8
0
 10
9.4491
 20
10.8683
 30
0.0
  0
SEQEND
  8
0
  0
LINE
  8
0
 10
9.4191
 20
10.8683
 30
0.0
 11
9.4791
 21
10.8683
 31
0.0
  0
LINE
  8
0
 10
9.5191
 20
10.7183
 30
0.0
 11
9.5791
 21
10.7183
 31
0.0
  0
LINE
  8
0
 10
9.4191
 20
10.7183
 30
0.0
 11
9.4791
 21
10.7183
 31
0.0
  0
LINE
  8
0
 10
9.616
 20
10.973
 30
0.0
 11
9.616
 21
10.6442
 31
0.0
  0
LINE
  8
0
 10
9.5191
 20
10.7183
 30
0.0
 11
9.5191
 21
10.8683
 31
0.0
  0
LINE
  8
0
 10
9.4191
 20
10.7183
 30
0.0
 11
9.4191
 21
10.8683
 31
0.0
  0
LINE
  8
0
 10
9.4791
 20
10.7183
 30
0.0
 11
9.4791
 21
10.8683
 31
0.0
  0
LINE
  8
0
 10
9.3791
 20
10.7183
 30
0.0
 11
9.3791
 21
10.8683
 31
0.0
  0
LINE
  8
0
 10
9.5791
 20
10.7183
 30
0.0
 11
9.5791
 21
10.8683
 31
0.0
  0
POLYLINE
  8
0
 66
     1
 10
0.0
 20
0.0
 30
0.0
 40
0.012
 41
0.012
  0
VERTEX
  8
0
 10
5.668
 20
11.0679
 30
0.0
  0
VERTEX
  8
0
 10
5.766
 20
11.0679
 30
0.0
  0
VERTEX
  8
0
 10
5.752
 20
11.0219
 30
0.0
  0
SEQEND
  8
0
  0
POLYLINE
  8
0
 66
     1
 10
0.0
 20
0.0
 30
0.0
 40
0.012
 41
0.012
  0
VERTEX
  8
0
 10
5.72
 20
11.0689
 30
0.0
  0
VERTEX
  8
0
 10
5.703
 20
11.0209
 30
0.0
  0
SEQEND
  8
0
  0
POLYLINE
  8
0
 66
     1
 10
0.0
 20
0.0
 30
0.0
 40
0.012
 41
0.012
  0
VERTEX
  8
0
 10
5.72
 20
11.0689
 30
0.0
  0
VERTEX
  8
0
 10
5.72
 20
11.1209
 30
0.0
  0
SEQEND
  8
0
  0
POLYLINE
  8
0
 66
     1
 10
0.0
 20
0.0
 30
0.0
 40
0.012
 41
0.012
  0
VERTEX
  8
0
 10
5.673
 20
11.0689
 30
0.0
  0
VERTEX
  8
0
 10
5.656
 20
11.0209
 30
0.0
  0
SEQEND
  8
0
  0
POLYLINE
  8
0
 66
     1
 10
0.0
 20
0.0
 30
0.0
 40
0.012
 41
0.012
  0
VERTEX
  8
0
 10
5.668
 20
9.7679
 30
0.0
  0
VERTEX
  8
0
 10
5.766
 20
9.7679
 30
0.0
  0
VERTEX
  8
0
 10
5.752
 20
9.7219
 30
0.0
  0
SEQEND
  8
0
  0
POLYLINE
  8
0
 66
     1
 10
0.0
 20
0.0
 30
0.0
 40
0.012
 41
0.012
  0
VERTEX
  8
0
 10
5.72
 20
9.7689
 30
0.0
  0
VERTEX
  8
0
 10
5.703
 20
9.7209
 30
0.0
  0
SEQEND
  8
0
  0
POLYLINE
  8
0
 66
     1
 10
0.0
 20
0.0
 30
0.0
 40
0.012
 41
0.012
  0
VERTEX
  8
0
 10
5.673
 20
9.7689
 30
0.0
  0
VERTEX
  8
0
 10
5.656
 20
9.7209
 30
0.0
  0
SEQEND
  8
0
  0
POLYLINE
  8
0
 66
     1
 10
0.0
 20
0.0
 30
0.0
 40
0.012
 41
0.012
  0
VERTEX
  8
0
 10
5.72
 20
9.7689
 30
0.0
  0
VERTEX
  8
0
 10
5.72
 20
9.8209
 30
0.0
  0
SEQEND
  8
0
  0
POLYLINE
  8
0
 66
     1
 10
0.0
 20
0.0
 30
0.0
 40
0.012
 41
0.012
  0
VERTEX
  8
0
 10
8.218
 20
9.7679
 30
0.0
  0
VERTEX
  8
0
 10
8.316
 20
9.7679
 30
0.0
  0
VERTEX
  8
0
 10
8.302
 20
9.7219
 30
0.0
  0
SEQEND
  8
0
  0
POLYLINE
  8
0
 66
     1
 10
0.0
 20
0.0
 30
0.0
 40
0.012
 41
0.012
  0
VERTEX
  8
0
 10
8.27
 20
9.7689
 30
0.0
  0
VERTEX
  8
0
 10
8.253
 20
9.7209
 30
0.0
  0
SEQEND
  8
0
  0
POLYLINE
  8
0
 66
     1
 10
0.0
 20
0.0
 30
0.0
 40
0.012
 41
0.012
  0
VERTEX
  8
0
 10
8.223
 20
9.7689
 30
0.0
  0
VERTEX
  8
0
 10
8.206
 20
9.7209
 30
0.0
  0
SEQEND
  8
0
  0
POLYLINE
  8
0
 66
     1
 10
0.0
 20
0.0
 30
0.0
 40
0.012
 41
0.012
  0
VERTEX
  8
0
 10
8.27
 20
9.7689
 30
0.0
  0
VERTEX
  8
0
 10
8.27
 20
9.8209
 30
0.0
  0
SEQEND
  8
0
  0
POLYLINE
  8
0
 66
     1
 10
0.0
 20
0.0
 30
0.0
 40
0.012
 41
0.012
  0
VERTEX
  8
0
 10
8.218
 20
11.0679
 30
0.0
  0
VERTEX
  8
0
 10
8.316
 20
11.0679
 30
0.0
  0
VERTEX
  8
0
 10
8.302
 20
11.0219
 30
0.0
  0
SEQEND
  8
0
  0
POLYLINE
  8
0
 66
     1
 10
0.0
 20
0.0
 30
0.0
 40
0.012
 41
0.012
  0
VERTEX
  8
0
 10
8.27
 20
11.0689
 30
0.0
  0
VERTEX
  8
0
 10
8.253
 20
11.0209
 30
0.0
  0
SEQEND
  8
0
  0
POLYLINE
  8
0
 66
     1
 10
0.0
 20
0.0
 30
0.0
 40
0.012
 41
0.012
  0
VERTEX
  8
0
 10
8.223
 20
11.0689
 30
0.0
  0
VERTEX
  8
0
 10
8.206
 20
11.0209
 30
0.0
  0
SEQEND
  8
0
  0
POLYLINE
  8
0
 66
     1
 10
0.0
 20
0.0
 30
0.0
 40
0.012
 41
0.012
  0
VERTEX
  8
0
 10
8.27
 20
11.0689
 30
0.0
  0
VERTEX
  8
0
 10
8.27
 20
11.1209
 30
0.0
  0
SEQEND
  8
0
  0
TEXT
  8
0
 10
5.2194
 20
11.2183
 30
0.0
 40
0.125
  1
CH1
  7
ROMAND
  0
TEXT
  8
0
 10
7.767
 20
11.2183
 30
0.0
 40
0.125
  1
CH2
  7
ROMAND
  0
TEXT
  8
0
 10
5.2194
 20
9.9116
 30
0.0
 40
0.125
  1
CH3
  7
ROMAND
  0
TEXT
  8
0
 10
7.767
 20
9.9116
 30
0.0
 40
0.125
  1
CH4
  7
ROMAND
  0
TEXT
  8
0
 10
5.6096
 20
11.2183
 30
0.0
 40
0.07
  1
INPUT
  7
ROMANS
  0
TEXT
  8
0
 10
8.1878
 20
11.2183
 30
0.0
 40
0.07
  1
INPUT
  7
ROMANS
  0
TEXT
  8
0
 10
5.6478
 20
9.9116
 30
0.0
 40
0.07
  1
INPUT
  7
ROMANS
  0
TEXT
  8
0
 10
8.1802
 20
9.9193
 30
0.0
 40
0.07
  1
INPUT
  7
ROMANS
  0
TEXT
  8
0
 10
6.1757
 20
10.9891
 30
0.0
 40
0.07
  1
CH1
  7
ROMANS
  0
TEXT
  8
0
 10
7.1397
 20
10.9891
 30
0.0
 40
0.07
  1
CH2
  7
ROMANS
  0
TEXT
  8
0
 10
6.1681
 20
9.69
 30
0.0
 40
0.07
  1
CH3
  7
ROMANS
  0
TEXT
  8
0
 10
7.132
 20
9.69
 30
0.0
 40
0.07
  1
CH4
  7
ROMANS
  0
TEXT
  8
0
 10
6.5429
 20
11.1572
 30
0.0
 40
0.1
  1
DATA
  7
ROMANS
  0
TEXT
  8
0
 10
6.5429
 20
10.9953
 30
0.0
 40
0.1
  1
PORT
  7
ROMANS
  0
TEXT
  8
0
 10
6.5429
 20
9.8572
 30
0.0
 40
0.1
  1
DATA
  7
ROMANS
  0
TEXT
  8
0
 10
6.5429
 20
9.6953
 30
0.0
 40
0.1
  1
PORT
  7
ROMANS
  0
LINE
  8
0
 10
9.8632
 20
11.6118
 30
0.0
 11
10.3632
 21
11.6118
 31
0.0
  0
LINE
  8
0
 10
9.8632
 20
8.6422
 30
0.0
 11
10.3632
 21
8.6422
 31
0.0
  0
LINE
  8
0
 10
10.4632
 20
11.232
 30
0.0
 11
10.4632
 21
10.897
 31
0.0
  0
LINE
  8
0
 10
10.9632
 20
11.232
 30
0.0
 11
10.9632
 21
10.897
 31
0.0
  0
CIRCLE
  8
0
 10
10.7132
 20
11.064
 30
0.0
 40
0.125
  0
LINE
  8
0
 10
10.5262
 20
11.189
 30
0.0
 11
10.5262
 21
10.939
 31
0.0
  0
LINE
  8
0
 10
10.6912
 20
10.941
 30
0.0
 11
10.7762
 21
11.172
 31
0.0
  0
LINE
  8
0
 10
10.9012
 20
11.189
 30
0.0
 11
10.9012
 21
10.939
 31
0.0
  0
ARC
  8
0
 10
10.7742
 20
10.932
 30
0.0
 40
0.087
 50
70.482
 51
138.596
  0
LINE
  8
0
 10
10.6502
 20
10.957
 30
0.0
 11
10.7352
 21
11.187
 31
0.0
  0
POLYLINE
  8
0
 66
     1
 10
0.0
 20
0.0
 30
0.0
 70
     1
  0
VERTEX
  8
0
 10
10.5732
 20
10.924
 30
0.0
  0
VERTEX
  8
0
 10
10.8532
 20
10.924
 30
0.0
  0
VERTEX
  8
0
 10
10.8532
 20
11.204
 30
0.0
  0
VERTEX
  8
0
 10
10.5732
 20
11.204
 30
0.0
  0
SEQEND
  8
0
  0
LINE
  8
0
 10
10.4632
 20
9.357
 30
0.0
 11
10.4632
 21
9.022
 31
0.0
  0
LINE
  8
0
 10
10.9632
 20
9.357
 30
0.0
 11
10.9632
 21
9.022
 31
0.0
  0
LINE
  8
0
 10
10.6502
 20
9.082
 30
0.0
 11
10.7352
 21
9.312
 31
0.0
  0
LINE
  8
0
 10
10.6912
 20
9.066
 30
0.0
 11
10.7762
 21
9.297
 31
0.0
  0
CIRCLE
  8
0
 10
10.7132
 20
9.189
 30
0.0
 40
0.125
  0
POLYLINE
  8
0
 66
     1
 10
0.0
 20
0.0
 30
0.0
 70
     1
  0
VERTEX
  8
0
 10
10.5732
 20
9.049
 30
0.0
  0
VERTEX
  8
0
 10
10.8532
 20
9.049
 30
0.0
  0
VERTEX
  8
0
 10
10.8532
 20
9.329
 30
0.0
  0
VERTEX
  8
0
 10
10.5732
 20
9.329
 30
0.0
  0
SEQEND
  8
0
  0
LINE
  8
0
 10
10.9012
 20
9.314
 30
0.0
 11
10.9012
 21
9.064
 31
0.0
  0
LINE
  8
0
 10
10.8532
 20
9.329
 30
0.0
 11
10.8012
 21
9.278
 31
0.0
  0
LINE
  8
0
 10
10.5262
 20
9.314
 30
0.0
 11
10.5262
 21
9.064
 31
0.0
  0
LINE
  8
0
 10
10.5732
 20
9.329
 30
0.0
 11
10.6252
 21
9.278
 31
0.0
  0
LINE
  8
0
 10
10.4332
 20
9.022
 30
0.0
 11
10.9932
 21
9.022
 31
0.0
  0
LINE
  8
0
 10
10.4332
 20
8.982
 30
0.0
 11
10.9932
 21
8.982
 31
0.0
  0
LINE
  8
0
 10
10.4632
 20
8.6422
 30
0.0
 11
10.9632
 21
8.6422
 31
0.0
  0
ARC
  8
0
 10
10.6102
 20
8.918
 30
0.0
 40
0.087
 50
270.823
 51
359.177
  0
ARC
  8
0
 10
10.8162
 20
8.918
 30
0.0
 40
0.087
 50
180.823
 51
269.177
  0
LINE
  8
0
 10
10.4632
 20
8.982
 30
0.0
 11
10.4632
 21
8.6422
 31
0.0
  0
CIRCLE
  8
0
 10
10.7132
 20
8.814
 30
0.0
 40
0.125
  0
ARC
  8
0
 10
10.6102
 20
8.711
 30
0.0
 40
0.087
 50
0.823
 51
89.177
  0
ARC
  8
0
 10
10.7132
 20
8.814
 30
0.0
 40
0.103
 50
171.063
 51
180.0
  0
ARC
  8
0
 10
10.7132
 20
8.814
 30
0.0
 40
0.103
 50
180.0
 51
188.937
  0
ARC
  8
0
 10
10.7132
 20
8.814
 30
0.0
 40
0.103
 50
261.063
 51
270.0
  0
ARC
  8
0
 10
10.7132
 20
8.814
 30
0.0
 40
0.103
 50
351.063
 51
0.0
  0
ARC
  8
0
 10
10.8162
 20
8.711
 30
0.0
 40
0.087
 50
90.823
 51
179.177
  0
ARC
  8
0
 10
10.7132
 20
8.814
 30
0.0
 40
0.103
 50
270.0
 51
278.937
  0
ARC
  8
0
 10
10.7132
 20
8.814
 30
0.0
 40
0.103
 50
0.0
 51
8.937
  0
ARC
  8
0
 10
10.6522
 20
9.322
 30
0.0
 40
0.087
 50
250.482
 51
318.596
  0
ARC
  8
0
 10
10.5802
 20
9.129
 30
0.0
 40
0.087
 50
0.722
 51
68.835
  0
ARC
  8
0
 10
10.7132
 20
9.189
 30
0.0
 40
0.103
 50
150.722
 51
159.659
  0
ARC
  8
0
 10
10.7132
 20
9.189
 30
0.0
 40
0.103
 50
159.659
 51
168.596
  0
ARC
  8
0
 10
10.4332
 20
9.002
 30
0.0
 40
0.02
 50
90.0
 51
270.0
  0
LINE
  8
0
 10
10.5262
 20
9.064
 30
0.0
 11
10.5732
 21
9.064
 31
0.0
  0
LINE
  8
0
 10
10.6252
 20
9.101
 30
0.0
 11
10.5732
 21
9.049
 31
0.0
  0
ARC
  8
0
 10
10.7132
 20
8.814
 30
0.0
 40
0.103
 50
90.0
 51
98.937
  0
ARC
  8
0
 10
10.7132
 20
8.814
 30
0.0
 40
0.103
 50
81.063
 51
90.0
  0
ARC
  8
0
 10
10.7742
 20
9.057
 30
0.0
 40
0.087
 50
70.482
 51
138.596
  0
ARC
  8
0
 10
10.8462
 20
9.25
 30
0.0
 40
0.087
 50
180.722
 51
248.835
  0
LINE
  8
0
 10
10.8012
 20
9.101
 30
0.0
 11
10.8532
 21
9.049
 31
0.0
  0
LINE
  8
0
 10
10.8532
 20
9.064
 30
0.0
 11
10.9012
 21
9.064
 31
0.0
  0
ARC
  8
0
 10
10.7132
 20
9.189
 30
0.0
 40
0.103
 50
330.722
 51
339.659
  0
ARC
  8
0
 10
10.7132
 20
9.189
 30
0.0
 40
0.103
 50
339.659
 51
348.596
  0
LINE
  8
0
 10
10.9632
 20
8.982
 30
0.0
 11
10.9632
 21
8.6422
 31
0.0
  0
ARC
  8
0
 10
10.9932
 20
9.002
 30
0.0
 40
0.02
 50
270.0
 51
90.0
  0
LINE
  8
0
 10
10.4332
 20
9.357
 30
0.0
 11
10.9932
 21
9.357
 31
0.0
  0
LINE
  8
0
 10
10.4332
 20
9.397
 30
0.0
 11
10.9932
 21
9.397
 31
0.0
  0
LINE
  8
0
 10
10.4332
 20
9.772
 30
0.0
 11
10.9932
 21
9.772
 31
0.0
  0
LINE
  8
0
 10
10.4332
 20
9.732
 30
0.0
 11
10.9932
 21
9.732
 31
0.0
  0
LINE
  8
0
 10
10.4332
 20
10.107
 30
0.0
 11
10.9932
 21
10.107
 31
0.0
  0
LINE
  8
0
 10
10.4332
 20
10.147
 30
0.0
 11
10.9932
 21
10.147
 31
0.0
  0
LINE
  8
0
 10
10.4332
 20
10.482
 30
0.0
 11
10.9932
 21
10.482
 31
0.0
  0
LINE
  8
0
 10
10.4332
 20
10.522
 30
0.0
 11
10.9932
 21
10.522
 31
0.0
  0
LINE
  8
0
 10
10.4332
 20
10.857
 30
0.0
 11
10.9932
 21
10.857
 31
0.0
  0
LINE
  8
0
 10
10.4332
 20
10.897
 30
0.0
 11
10.9932
 21
10.897
 31
0.0
  0
ARC
  8
0
 10
10.4332
 20
10.127
 30
0.0
 40
0.02
 50
90.0
 51
270.0
  0
LINE
  8
0
 10
10.4632
 20
9.732
 30
0.0
 11
10.4632
 21
9.397
 31
0.0
  0
ARC
  8
0
 10
10.5802
 20
9.504
 30
0.0
 40
0.087
 50
0.722
 51
68.835
  0
ARC
  8
0
 10
10.6522
 20
9.697
 30
0.0
 40
0.087
 50
250.482
 51
318.596
  0
POLYLINE
  8
0
 66
     1
 10
0.0
 20
0.0
 30
0.0
 70
     1
  0
VERTEX
  8
0
 10
10.5732
 20
9.424
 30
0.0
  0
VERTEX
  8
0
 10
10.8532
 20
9.424
 30
0.0
  0
VERTEX
  8
0
 10
10.8532
 20
9.704
 30
0.0
  0
VERTEX
  8
0
 10
10.5732
 20
9.704
 30
0.0
  0
SEQEND
  8
0
  0
CIRCLE
  8
0
 10
10.7132
 20
9.564
 30
0.0
 40
0.125
  0
ARC
  8
0
 10
10.7132
 20
9.564
 30
0.0
 40
0.103
 50
150.722
 51
159.659
  0
ARC
  8
0
 10
10.7132
 20
9.564
 30
0.0
 40
0.103
 50
159.659
 51
168.596
  0
ARC
  8
0
 10
10.4332
 20
9.377
 30
0.0
 40
0.02
 50
90.0
 51
270.0
  0
LINE
  8
0
 10
10.5262
 20
9.689
 30
0.0
 11
10.5262
 21
9.439
 31
0.0
  0
LINE
  8
0
 10
10.5262
 20
9.439
 30
0.0
 11
10.5732
 21
9.439
 31
0.0
  0
LINE
  8
0
 10
10.5262
 20
9.689
 30
0.0
 11
10.5732
 21
9.689
 31
0.0
  0
LINE
  8
0
 10
10.5262
 20
9.314
 30
0.0
 11
10.5732
 21
9.314
 31
0.0
  0
LINE
  8
0
 10
10.5732
 20
9.704
 30
0.0
 11
10.6252
 21
9.653
 31
0.0
  0
LINE
  8
0
 10
10.6252
 20
9.476
 30
0.0
 11
10.5732
 21
9.424
 31
0.0
  0
ARC
  8
0
 10
10.8462
 20
9.625
 30
0.0
 40
0.087
 50
180.722
 51
248.835
  0
ARC
  8
0
 10
10.7742
 20
9.432
 30
0.0
 40
0.087
 50
70.482
 51
138.596
  0
ARC
  8
0
 10
10.7132
 20
9.564
 30
0.0
 40
0.103
 50
339.659
 51
348.596
  0
ARC
  8
0
 10
10.7132
 20
9.564
 30
0.0
 40
0.103
 50
330.722
 51
339.659
  0
LINE
  8
0
 10
10.6502
 20
9.457
 30
0.0
 11
10.7352
 21
9.687
 31
0.0
  0
LINE
  8
0
 10
10.6912
 20
9.441
 30
0.0
 11
10.7762
 21
9.672
 31
0.0
  0
LINE
  8
0
 10
10.8532
 20
9.704
 30
0.0
 11
10.8012
 21
9.653
 31
0.0
  0
LINE
  8
0
 10
10.8012
 20
9.476
 30
0.0
 11
10.8532
 21
9.424
 31
0.0
  0
LINE
  8
0
 10
10.9012
 20
9.689
 30
0.0
 11
10.9012
 21
9.439
 31
0.0
  0
LINE
  8
0
 10
10.8532
 20
9.439
 30
0.0
 11
10.9012
 21
9.439
 31
0.0
  0
LINE
  8
0
 10
10.8532
 20
9.689
 30
0.0
 11
10.9012
 21
9.689
 31
0.0
  0
LINE
  8
0
 10
10.8532
 20
9.314
 30
0.0
 11
10.9012
 21
9.314
 31
0.0
  0
ARC
  8
0
 10
10.6522
 20
10.072
 30
0.0
 40
0.087
 50
250.482
 51
318.596
  0
ARC
  8
0
 10
10.5802
 20
9.879
 30
0.0
 40
0.087
 50
0.722
 51
68.835
  0
CIRCLE
  8
0
 10
10.7132
 20
9.939
 30
0.0
 40
0.125
  0
POLYLINE
  8
0
 66
     1
 10
0.0
 20
0.0
 30
0.0
 70
     1
  0
VERTEX
  8
0
 10
10.5732
 20
9.799
 30
0.0
  0
VERTEX
  8
0
 10
10.8532
 20
9.799
 30
0.0
  0
VERTEX
  8
0
 10
10.8532
 20
10.079
 30
0.0
  0
VERTEX
  8
0
 10
10.5732
 20
10.079
 30
0.0
  0
SEQEND
  8
0
  0
ARC
  8
0
 10
10.7132
 20
9.939
 30
0.0
 40
0.103
 50
159.659
 51
168.596
  0
ARC
  8
0
 10
10.7132
 20
9.939
 30
0.0
 40
0.103
 50
150.722
 51
159.659
  0
ARC
  8
0
 10
10.4332
 20
9.752
 30
0.0
 40
0.02
 50
90.0
 51
270.0
  0
LINE
  8
0
 10
10.5262
 20
10.064
 30
0.0
 11
10.5262
 21
9.814
 31
0.0
  0
LINE
  8
0
 10
10.5262
 20
9.814
 30
0.0
 11
10.5732
 21
9.814
 31
0.0
  0
LINE
  8
0
 10
10.5262
 20
10.064
 30
0.0
 11
10.5732
 21
10.064
 31
0.0
  0
LINE
  8
0
 10
10.4632
 20
10.107
 30
0.0
 11
10.4632
 21
9.772
 31
0.0
  0
LINE
  8
0
 10
10.6252
 20
9.851
 30
0.0
 11
10.5732
 21
9.799
 31
0.0
  0
LINE
  8
0
 10
10.5732
 20
10.079
 30
0.0
 11
10.6252
 21
10.028
 31
0.0
  0
ARC
  8
0
 10
10.7742
 20
9.807
 30
0.0
 40
0.087
 50
70.482
 51
138.596
  0
LINE
  8
0
 10
10.6502
 20
9.832
 30
0.0
 11
10.7352
 21
10.062
 31
0.0
  0
LINE
  8
0
 10
10.6912
 20
9.816
 30
0.0
 11
10.7762
 21
10.047
 31
0.0
  0
LINE
  8
0
 10
10.9012
 20
10.064
 30
0.0
 11
10.9012
 21
9.814
 31
0.0
  0
ARC
  8
0
 10
10.8462
 20
10.0
 30
0.0
 40
0.087
 50
180.722
 51
248.835
  0
LINE
  8
0
 10
10.8012
 20
9.851
 30
0.0
 11
10.8532
 21
9.799
 31
0.0
  0
LINE
  8
0
 10
10.8532
 20
9.814
 30
0.0
 11
10.9012
 21
9.814
 31
0.0
  0
ARC
  8
0
 10
10.7132
 20
9.939
 30
0.0
 40
0.103
 50
330.722
 51
339.659
  0
ARC
  8
0
 10
10.7132
 20
9.939
 30
0.0
 40
0.103
 50
339.659
 51
348.596
  0
LINE
  8
0
 10
10.8532
 20
10.079
 30
0.0
 11
10.8012
 21
10.028
 31
0.0
  0
LINE
  8
0
 10
10.8532
 20
10.064
 30
0.0
 11
10.9012
 21
10.064
 31
0.0
  0
LINE
  8
0
 10
10.6912
 20
10.566
 30
0.0
 11
10.7762
 21
10.797
 31
0.0
  0
LINE
  8
0
 10
10.9012
 20
10.814
 30
0.0
 11
10.9012
 21
10.564
 31
0.0
  0
LINE
  8
0
 10
10.8012
 20
10.601
 30
0.0
 11
10.8532
 21
10.549
 31
0.0
  0
LINE
  8
0
 10
10.5262
 20
10.814
 30
0.0
 11
10.5262
 21
10.564
 31
0.0
  0
LINE
  8
0
 10
10.4632
 20
10.857
 30
0.0
 11
10.4632
 21
10.522
 31
0.0
  0
CIRCLE
  8
0
 10
10.7132
 20
10.689
 30
0.0
 40
0.125
  0
POLYLINE
  8
0
 66
     1
 10
0.0
 20
0.0
 30
0.0
 70
     1
  0
VERTEX
  8
0
 10
10.5732
 20
10.549
 30
0.0
  0
VERTEX
  8
0
 10
10.8532
 20
10.549
 30
0.0
  0
VERTEX
  8
0
 10
10.8532
 20
10.829
 30
0.0
  0
VERTEX
  8
0
 10
10.5732
 20
10.829
 30
0.0
  0
SEQEND
  8
0
  0
LINE
  8
0
 10
10.6252
 20
10.601
 30
0.0
 11
10.5732
 21
10.549
 31
0.0
  0
ARC
  8
0
 10
10.6522
 20
10.447
 30
0.0
 40
0.087
 50
250.482
 51
318.596
  0
ARC
  8
0
 10
10.5802
 20
10.254
 30
0.0
 40
0.087
 50
0.722
 51
68.835
  0
CIRCLE
  8
0
 10
10.7132
 20
10.314
 30
0.0
 40
0.125
  0
POLYLINE
  8
0
 66
     1
 10
0.0
 20
0.0
 30
0.0
 70
     1
  0
VERTEX
  8
0
 10
10.5732
 20
10.174
 30
0.0
  0
VERTEX
  8
0
 10
10.8532
 20
10.174
 30
0.0
  0
VERTEX
  8
0
 10
10.8532
 20
10.454
 30
0.0
  0
VERTEX
  8
0
 10
10.5732
 20
10.454
 30
0.0
  0
SEQEND
  8
0
  0
ARC
  8
0
 10
10.7132
 20
10.314
 30
0.0
 40
0.103
 50
159.659
 51
168.596
  0
ARC
  8
0
 10
10.7132
 20
10.314
 30
0.0
 40
0.103
 50
150.722
 51
159.659
  0
LINE
  8
0
 10
10.5262
 20
10.439
 30
0.0
 11
10.5262
 21
10.189
 31
0.0
  0
LINE
  8
0
 10
10.5262
 20
10.189
 30
0.0
 11
10.5732
 21
10.189
 31
0.0
  0
LINE
  8
0
 10
10.5262
 20
10.439
 30
0.0
 11
10.5732
 21
10.439
 31
0.0
  0
ARC
  8
0
 10
10.4332
 20
10.502
 30
0.0
 40
0.02
 50
90.0
 51
270.0
  0
LINE
  8
0
 10
10.4632
 20
10.482
 30
0.0
 11
10.4632
 21
10.147
 31
0.0
  0
LINE
  8
0
 10
10.5262
 20
10.564
 30
0.0
 11
10.5732
 21
10.564
 31
0.0
  0
LINE
  8
0
 10
10.6252
 20
10.226
 30
0.0
 11
10.5732
 21
10.174
 31
0.0
  0
LINE
  8
0
 10
10.5732
 20
10.454
 30
0.0
 11
10.6252
 21
10.403
 31
0.0
  0
ARC
  8
0
 10
10.7742
 20
10.182
 30
0.0
 40
0.087
 50
70.482
 51
138.596
  0
LINE
  8
0
 10
10.6502
 20
10.207
 30
0.0
 11
10.7352
 21
10.437
 31
0.0
  0
LINE
  8
0
 10
10.6912
 20
10.191
 30
0.0
 11
10.7762
 21
10.422
 31
0.0
  0
LINE
  8
0
 10
10.9012
 20
10.439
 30
0.0
 11
10.9012
 21
10.189
 31
0.0
  0
ARC
  8
0
 10
10.8462
 20
10.375
 30
0.0
 40
0.087
 50
180.722
 51
248.835
  0
LINE
  8
0
 10
10.8012
 20
10.226
 30
0.0
 11
10.8532
 21
10.174
 31
0.0
  0
LINE
  8
0
 10
10.8532
 20
10.189
 30
0.0
 11
10.9012
 21
10.189
 31
0.0
  0
ARC
  8
0
 10
10.7132
 20
10.314
 30
0.0
 40
0.103
 50
330.722
 51
339.659
  0
ARC
  8
0
 10
10.7132
 20
10.314
 30
0.0
 40
0.103
 50
339.659
 51
348.596
  0
LINE
  8
0
 10
10.8532
 20
10.454
 30
0.0
 11
10.8012
 21
10.403
 31
0.0
  0
LINE
  8
0
 10
10.8532
 20
10.439
 30
0.0
 11
10.9012
 21
10.439
 31
0.0
  0
LINE
  8
0
 10
10.8532
 20
10.564
 30
0.0
 11
10.9012
 21
10.564
 31
0.0
  0
ARC
  8
0
 10
10.6522
 20
10.822
 30
0.0
 40
0.087
 50
250.482
 51
318.596
  0
ARC
  8
0
 10
10.5802
 20
10.629
 30
0.0
 40
0.087
 50
0.722
 51
68.835
  0
ARC
  8
0
 10
10.7132
 20
10.689
 30
0.0
 40
0.103
 50
159.659
 51
168.596
  0
ARC
  8
0
 10
10.7132
 20
10.689
 30
0.0
 40
0.103
 50
150.722
 51
159.659
  0
LINE
  8
0
 10
10.5262
 20
10.814
 30
0.0
 11
10.5732
 21
10.814
 31
0.0
  0
ARC
  8
0
 10
10.4332
 20
10.877
 30
0.0
 40
0.02
 50
90.0
 51
270.0
  0
LINE
  8
0
 10
10.5262
 20
10.939
 30
0.0
 11
10.5732
 21
10.939
 31
0.0
  0
LINE
  8
0
 10
10.5732
 20
10.829
 30
0.0
 11
10.6252
 21
10.778
 31
0.0
  0
LINE
  8
0
 10
10.6252
 20
10.976
 30
0.0
 11
10.5732
 21
10.924
 31
0.0
  0
ARC
  8
0
 10
10.7742
 20
10.557
 30
0.0
 40
0.087
 50
70.482
 51
138.596
  0
LINE
  8
0
 10
10.6502
 20
10.582
 30
0.0
 11
10.7352
 21
10.812
 31
0.0
  0
ARC
  8
0
 10
10.8462
 20
10.75
 30
0.0
 40
0.087
 50
180.722
 51
248.835
  0
ARC
  8
0
 10
10.7132
 20
10.689
 30
0.0
 40
0.103
 50
330.722
 51
339.659
  0
ARC
  8
0
 10
10.7132
 20
10.689
 30
0.0
 40
0.103
 50
339.659
 51
348.596
  0
LINE
  8
0
 10
10.8532
 20
10.829
 30
0.0
 11
10.8012
 21
10.778
 31
0.0
  0
LINE
  8
0
 10
10.8532
 20
10.814
 30
0.0
 11
10.9012
 21
10.814
 31
0.0
  0
LINE
  8
0
 10
10.8012
 20
10.976
 30
0.0
 11
10.8532
 21
10.924
 31
0.0
  0
LINE
  8
0
 10
10.8532
 20
10.939
 30
0.0
 11
10.9012
 21
10.939
 31
0.0
  0
ARC
  8
0
 10
10.9932
 20
10.127
 30
0.0
 40
0.02
 50
270.0
 51
90.0
  0
LINE
  8
0
 10
10.9632
 20
9.732
 30
0.0
 11
10.9632
 21
9.397
 31
0.0
  0
ARC
  8
0
 10
10.9932
 20
9.377
 30
0.0
 40
0.02
 50
270.0
 51
90.0
  0
ARC
  8
0
 10
10.9932
 20
9.752
 30
0.0
 40
0.02
 50
270.0
 51
90.0
  0
LINE
  8
0
 10
10.9632
 20
10.107
 30
0.0
 11
10.9632
 21
9.772
 31
0.0
  0
LINE
  8
0
 10
10.9632
 20
10.857
 30
0.0
 11
10.9632
 21
10.522
 31
0.0
  0
ARC
  8
0
 10
10.9932
 20
10.502
 30
0.0
 40
0.02
 50
270.0
 51
90.0
  0
LINE
  8
0
 10
10.9632
 20
10.482
 30
0.0
 11
10.9632
 21
10.147
 31
0.0
  0
ARC
  8
0
 10
10.9932
 20
10.877
 30
0.0
 40
0.02
 50
270.0
 51
90.0
  0
LINE
  8
0
 10
10.4332
 20
11.272
 30
0.0
 11
10.9932
 21
11.272
 31
0.0
  0
LINE
  8
0
 10
10.4332
 20
11.232
 30
0.0
 11
10.9932
 21
11.232
 31
0.0
  0
LINE
  8
0
 10
10.4632
 20
11.6118
 30
0.0
 11
10.9632
 21
11.6118
 31
0.0
  0
ARC
  8
0
 10
10.8162
 20
11.336
 30
0.0
 40
0.087
 50
90.823
 51
179.177
  0
ARC
  8
0
 10
10.6102
 20
11.336
 30
0.0
 40
0.087
 50
0.823
 51
89.177
  0
ARC
  8
0
 10
10.7132
 20
11.44
 30
0.0
 40
0.103
 50
351.063
 51
0.0
  0
ARC
  8
0
 10
10.7132
 20
11.44
 30
0.0
 40
0.103
 50
180.0
 51
188.937
  0
LINE
  8
0
 10
10.4632
 20
11.272
 30
0.0
 11
10.4632
 21
11.6118
 31
0.0
  0
CIRCLE
  8
0
 10
10.7132
 20
11.44
 30
0.0
 40
0.125
  0
ARC
  8
0
 10
10.5802
 20
11.004
 30
0.0
 40
0.087
 50
0.722
 51
68.835
  0
ARC
  8
0
 10
10.6522
 20
11.197
 30
0.0
 40
0.087
 50
250.482
 51
318.596
  0
ARC
  8
0
 10
10.7132
 20
11.064
 30
0.0
 40
0.103
 50
150.722
 51
159.659
  0
ARC
  8
0
 10
10.7132
 20
11.064
 30
0.0
 40
0.103
 50
159.659
 51
168.596
  0
LINE
  8
0
 10
10.5262
 20
11.189
 30
0.0
 11
10.5732
 21
11.189
 31
0.0
  0
ARC
  8
0
 10
10.4332
 20
11.252
 30
0.0
 40
0.02
 50
90.0
 51
270.0
  0
LINE
  8
0
 10
10.8532
 20
11.189
 30
0.0
 11
10.9012
 21
11.189
 31
0.0
  0
ARC
  8
0
 10
10.7132
 20
11.064
 30
0.0
 40
0.103
 50
339.659
 51
348.596
  0
ARC
  8
0
 10
10.7132
 20
11.064
 30
0.0
 40
0.103
 50
330.722
 51
339.659
  0
ARC
  8
0
 10
10.8462
 20
11.125
 30
0.0
 40
0.087
 50
180.722
 51
248.835
  0
ARC
  8
0
 10
10.7132
 20
11.44
 30
0.0
 40
0.103
 50
270.0
 51
278.937
  0
ARC
  8
0
 10
10.7132
 20
11.44
 30
0.0
 40
0.103
 50
261.063
 51
270.0
  0
ARC
  8
0
 10
10.6102
 20
11.543
 30
0.0
 40
0.087
 50
270.823
 51
359.177
  0
ARC
  8
0
 10
10.7132
 20
11.44
 30
0.0
 40
0.103
 50
171.063
 51
180.0
  0
ARC
  8
0
 10
10.7132
 20
11.44
 30
0.0
 40
0.103
 50
81.063
 51
90.0
  0
ARC
  8
0
 10
10.8162
 20
11.543
 30
0.0
 40
0.087
 50
180.823
 51
269.177
  0
ARC
  8
0
 10
10.7132
 20
11.44
 30
0.0
 40
0.103
 50
0.0
 51
8.937
  0
ARC
  8
0
 10
10.7132
 20
11.44
 30
0.0
 40
0.103
 50
90.0
 51
98.937
  0
LINE
  8
0
 10
10.9632
 20
11.272
 30
0.0
 11
10.9632
 21
11.6118
 31
0.0
  0
ARC
  8
0
 10
10.9932
 20
11.252
 30
0.0
 40
0.02
 50
270.0
 51
90.0
  0
LINE
  8
0
 10
9.5795
 20
10.522
 30
0.0
 11
9.5795
 21
10.46
 31
0.0
  0
LINE
  8
0
 10
8.5795
 20
10.522
 30
0.0
 11
8.5795
 21
10.46
 31
0.0
  0
LINE
  8
0
 10
8.5795
 20
10.522
 30
0.0
 11
9.5795
 21
10.522
 31
0.0
  0
LINE
  8
0
 10
8.5795
 20
10.46
 30
0.0
 11
9.5795
 21
10.46
 31
0.0
  0
TEXT
  8
0
 10
8.6788
 20
9.7386
 30
0.0
 40
0.06
  1
CLP
 50
90.0
  7
ROMANS
  0
TEXT
  8
0
 10
8.6788
 20
9.9429
 30
0.0
 40
0.06
  1
ON
 50
90.0
  7
ROMANS
  0
TEXT
  8
0
 10
8.7759
 20
9.7386
 30
0.0
 40
0.06
  1
FLT
 50
90.0
  7
ROMANS
  0
TEXT
  8
0
 10
8.7754
 20
9.9106
 30
0.0
 40
0.06
  1
ON
 50
90.0
  7
ROMANS
  0
TEXT
  8
0
 10
8.8725
 20
9.7386
 30
0.0
 40
0.06
  1
33Hz
 50
90.0
  7
ROMANS
  0
TEXT
  8
0
 10
9.2784
 20
9.7381
 30
0.0
 40
0.06
  1
BR
 50
90.0
  7
ROMANS
  0
TEXT
  8
0
 10
9.2774
 20
9.8724
 30
0.0
 40
0.06
  1
MONO
 50
90.0
  7
ROMANS
  0
TEXT
  8
0
 10
9.4799
 20
9.7386
 30
0.0
 40
0.06
  1
FLT
 50
90.0
  7
ROMANS
  0
TEXT
  8
0
 10
9.4794
 20
9.9106
 30
0.0
 40
0.06
  1
ON
 50
90.0
  7
ROMANS
  0
TEXT
  8
0
 10
9.5775
 20
9.7386
 30
0.0
 40
0.06
  1
CLP
 50
90.0
  7
ROMANS
  0
TEXT
  8
0
 10
9.5775
 20
9.9429
 30
0.0
 40
0.06
  1
ON
 50
90.0
  7
ROMANS
  0
TEXT
  8
0
 10
9.3779
 20
9.7386
 30
0.0
 40
0.06
  1
33Hz
 50
90.0
  7
ROMANS
  0
TEXT
  8
0
 10
8.8202
 20
9.9947
 30
0.0
 40
0.0504
  1
PARALLEL
  7
ROMANS
  0
TEXT
  8
0
 10
8.9196
 20
9.9131
 30
0.0
 40
0.0504
  1
INPUTS
  7
ROMANS
  0
LINE
  8
0
 10
9.1959
 20
9.729
 30
0.0
 11
9.1959
 21
10.0729
 31
0.0
  0
LINE
  8
0
 10
9.1959
 20
10.0729
 30
0.0
 11
8.8026
 21
10.0729
 31
0.0
  0
LINE
  8
0
 10
8.8026
 20
10.0729
 30
0.0
 11
8.8026
 21
9.9727
 31
0.0
  0
LINE
  8
0
 10
8.8026
 20
9.9727
 30
0.0
 11
8.9029
 21
9.9727
 31
0.0
  0
LINE
  8
0
 10
8.9029
 20
9.9727
 30
0.0
 11
8.9029
 21
9.729
 31
0.0
  0
POLYLINE
  8
0
 66
     1
 10
0.0
 20
0.0
 30
0.0
 40
0.01
 41
0.01
  0
VERTEX
  8
0
 10
9.0499
 20
9.8666
 30
0.0
  0
VERTEX
  8
0
 10
9.0499
 20
9.729
 30
0.0
  0
SEQEND
  8
0
  0
POLYLINE
  8
0
 66
     1
 10
0.0
 20
0.0
 30
0.0
 40
0.01
 41
0.01
  0
VERTEX
  8
0
 10
8.9491
 20
9.729
 30
0.0
  0
VERTEX
  8
0
 10
8.9491
 20
9.8666
 30
0.0
  0
VERTEX
  8
0
 10
9.1507
 20
9.8666
 30
0.0
  0
VERTEX
  8
0
 10
9.1507
 20
9.729
 30
0.0
  0
SEQEND
  8
0
  0
POLYLINE
  8
0
 66
     1
 10
0.0
 20
0.0
 30
0.0
 40
0.01
 41
0.01
  0
VERTEX
  8
0
 10
9.7671
 20
10.2014
 30
0.0
  0
VERTEX
  8
0
 10
5.2012
 20
10.2014
 30
0.0
  0
SEQEND
  8
0
  0
TEXT
  8
0
 10
8.5332
 20
11.3825
 30
0.0
 40
0.075
  1
CH1
  7
ROMANS
  0
TEXT
  8
0
 10
9.4044
 20
11.3825
 30
0.0
 40
0.075
  1
CH2
  7
ROMANS
  0
LINE
  8
0
 10
9.1959
 20
11.3729
 30
0.0
 11
8.8026
 21
11.3729
 31
0.0
  0
TEXT
  8
0
 10
8.9196
 20
11.2131
 30
0.0
 40
0.0504
  1
INPUTS
  7
ROMANS
  0
TEXT
  8
0
 10
8.8202
 20
11.2947
 30
0.0
 40
0.0504
  1
PARALLEL
  7
ROMANS
  0
TEXT
  8
0
 10
8.6788
 20
11.0386
 30
0.0
 40
0.06
  1
CLP
 50
90.0
  7
ROMANS
  0
TEXT
  8
0
 10
8.6788
 20
11.2429
 30
0.0
 40
0.06
  1
ON
 50
90.0
  7
ROMANS
  0
LINE
  8
0
 10
8.8026
 20
11.2727
 30
0.0
 11
8.9029
 21
11.2727
 31
0.0
  0
LINE
  8
0
 10
8.8026
 20
11.3729
 30
0.0
 11
8.8026
 21
11.2727
 31
0.0
  0
TEXT
  8
0
 10
8.7754
 20
11.2106
 30
0.0
 40
0.06
  1
ON
 50
90.0
  7
ROMANS
  0
TEXT
  8
0
 10
8.7759
 20
11.0386
 30
0.0
 40
0.06
  1
FLT
 50
90.0
  7
ROMANS
  0
TEXT
  8
0
 10
8.8725
 20
11.0386
 30
0.0
 40
0.06
  1
33Hz
 50
90.0
  7
ROMANS
  0
TEXT
  8
0
 10
9.3779
 20
11.0386
 30
0.0
 40
0.06
  1
33Hz
 50
90.0
  7
ROMANS
  0
TEXT
  8
0
 10
9.2774
 20
11.1724
 30
0.0
 40
0.06
  1
MONO
 50
90.0
  7
ROMANS
  0
TEXT
  8
0
 10
9.2784
 20
11.0381
 30
0.0
 40
0.06
  1
BR
 50
90.0
  7
ROMANS
  0
TEXT
  8
0
 10
9.5775
 20
11.2429
 30
0.0
 40
0.06
  1
ON
 50
90.0
  7
ROMANS
  0
TEXT
  8
0
 10
9.5775
 20
11.0386
 30
0.0
 40
0.06
  1
CLP
 50
90.0
  7
ROMANS
  0
TEXT
  8
0
 10
9.4794
 20
11.2106
 30
0.0
 40
0.06
  1
ON
 50
90.0
  7
ROMANS
  0
TEXT
  8
0
 10
9.4799
 20
11.0386
 30
0.0
 40
0.06
  1
FLT
 50
90.0
  7
ROMANS
  0
LINE
  8
0
 10
9.1959
 20
11.029
 30
0.0
 11
9.1959
 21
11.3729
 31
0.0
  0
POLYLINE
  8
0
 66
     1
 10
0.0
 20
0.0
 30
0.0
 40
0.01
 41
0.01
  0
VERTEX
  8
0
 10
8.9491
 20
11.029
 30
0.0
  0
VERTEX
  8
0
 10
8.9491
 20
11.1666
 30
0.0
  0
VERTEX
  8
0
 10
9.1507
 20
11.1666
 30
0.0
  0
VERTEX
  8
0
 10
9.1507
 20
11.029
 30
0.0
  0
SEQEND
  8
0
  0
POLYLINE
  8
0
 66
     1
 10
0.0
 20
0.0
 30
0.0
 40
0.01
 41
0.01
  0
VERTEX
  8
0
 10
9.0499
 20
11.1666
 30
0.0
  0
VERTEX
  8
0
 10
9.0499
 20
11.029
 30
0.0
  0
SEQEND
  8
0
  0
LINE
  8
0
 10
8.9029
 20
11.2727
 30
0.0
 11
8.9029
 21
11.029
 31
0.0
  0
TEXT
  8
0
 10
8.5415
 20
10.0763
 30
0.0
 40
0.075
  1
CH3
  7
ROMANS
  0
TEXT
  8
0
 10
9.41
 20
10.0832
 30
0.0
 40
0.075
  1
CH4
  7
ROMANS
  0
TEXT
  8
0
 10
8.6794
 20
10.2875
 30
0.0
 40
0.059
  1
OFF
 50
90.0
  7
ROMANS
  0
TEXT
  8
0
 10
8.7795
 20
10.2875
 30
0.0
 40
0.059
  1
OFF
 50
90.0
  7
ROMANS
  0
TEXT
  8
0
 10
8.8819
 20
10.2323
 30
0.0
 40
0.059
  1
75Hz
 50
90.0
  7
ROMANS
  0
TEXT
  8
0
 10
9.2812
 20
10.2875
 30
0.0
 40
0.059
  1
OFF
 50
90.0
  7
ROMANS
  0
TEXT
  8
0
 10
9.3814
 20
10.2323
 30
0.0
 40
0.059
  1
75Hz
 50
90.0
  7
ROMANS
  0
TEXT
  8
0
 10
9.4815
 20
10.2875
 30
0.0
 40
0.059
  1
OFF
 50
90.0
  7
ROMANS
  0
TEXT
  8
0
 10
9.5816
 20
10.2875
 30
0.0
 40
0.059
  1
OFF
 50
90.0
  7
ROMANS
  0
TEXT
  8
0
 10
8.9095
 20
10.2961
 30
0.0
 40
0.0529
  1
STEREO
  7
ROMANS
  0
POLYLINE
  8
0
 66
     1
 10
0.0
 20
0.0
 30
0.0
 40
0.01
 41
0.01
  0
VERTEX
  8
0
 10
9.0499
 20
10.3987
 30
0.0
  0
VERTEX
  8
0
 10
9.0499
 20
10.46
 30
0.0
  0
SEQEND
  8
0
  0
POLYLINE
  8
0
 66
     1
 10
0.0
 20
0.0
 30
0.0
 40
0.01
 41
0.01
  0
VERTEX
  8
0
 10
8.9491
 20
10.46
 30
0.0
  0
VERTEX
  8
0
 10
8.9491
 20
10.3987
 30
0.0
  0
VERTEX
  8
0
 10
9.1507
 20
10.3987
 30
0.0
  0
VERTEX
  8
0
 10
9.1507
 20
10.46
 30
0.0
  0
SEQEND
  8
0
  0
LINE
  8
0
 10
8.9012
 20
10.46
 30
0.0
 11
8.9012
 21
10.2467
 31
0.0
  0
LINE
  8
0
 10
8.9012
 20
10.2467
 30
0.0
 11
9.2085
 21
10.2467
 31
0.0
  0
LINE
  8
0
 10
9.2085
 20
10.2467
 30
0.0
 11
9.2085
 21
10.46
 31
0.0
  0
LINE
  8
0
 10
8.9012
 20
8.9467
 30
0.0
 11
9.2085
 21
8.9467
 31
0.0
  0
TEXT
  8
0
 10
8.9095
 20
8.9961
 30
0.0
 40
0.0529
  1
STEREO
  7
ROMANS
  0
POLYLINE
  8
0
 66
     1
 10
0.0
 20
0.0
 30
0.0
 40
0.01
 41
0.01
  0
VERTEX
  8
0
 10
8.9491
 20
9.16
 30
0.0
  0
VERTEX
  8
0
 10
8.9491
 20
9.0987
 30
0.0
  0
VERTEX
  8
0
 10
9.1507
 20
9.0987
 30
0.0
  0
VERTEX
  8
0
 10
9.1507
 20
9.16
 30
0.0
  0
SEQEND
  8
0
  0
LINE
  8
0
 10
8.5795
 20
9.222
 30
0.0
 11
9.5795
 21
9.222
 31
0.0
  0
LINE
  8
0
 10
8.5795
 20
9.16
 30
0.0
 11
9.5795
 21
9.16
 31
0.0
  0
TEXT
  8
0
 10
8.6794
 20
8.9875
 30
0.0
 40
0.059
  1
OFF
 50
90.0
  7
ROMANS
  0
LINE
  8
0
 10
8.5795
 20
9.222
 30
0.0
 11
8.5795
 21
9.16
 31
0.0
  0
LINE
  8
0
 10
8.9012
 20
9.16
 30
0.0
 11
8.9012
 21
8.9467
 31
0.0
  0
TEXT
  8
0
 10
8.7795
 20
8.9875
 30
0.0
 40
0.059
  1
OFF
 50
90.0
  7
ROMANS
  0
TEXT
  8
0
 10
8.8819
 20
8.9323
 30
0.0
 40
0.059
  1
75Hz
 50
90.0
  7
ROMANS
  0
TEXT
  8
0
 10
9.3814
 20
8.9323
 30
0.0
 40
0.059
  1
75Hz
 50
90.0
  7
ROMANS
  0
LINE
  8
0
 10
9.2085
 20
8.9467
 30
0.0
 11
9.2085
 21
9.16
 31
0.0
  0
POLYLINE
  8
0
 66
     1
 10
0.0
 20
0.0
 30
0.0
 40
0.01
 41
0.01
  0
VERTEX
  8
0
 10
9.0499
 20
9.0987
 30
0.0
  0
VERTEX
  8
0
 10
9.0499
 20
9.16
 30
0.0
  0
SEQEND
  8
0
  0
TEXT
  8
0
 10
9.2812
 20
8.9875
 30
0.0
 40
0.059
  1
OFF
 50
90.0
  7
ROMANS
  0
TEXT
  8
0
 10
9.4815
 20
8.9875
 30
0.0
 40
0.059
  1
OFF
 50
90.0
  7
ROMANS
  0
TEXT
  8
0
 10
9.5816
 20
8.9875
 30
0.0
 40
0.059
  1
OFF
 50
90.0
  7
ROMANS
  0
LINE
  8
0
 10
9.5795
 20
9.222
 30
0.0
 11
9.5795
 21
9.16
 31
0.0
  0
TEXT
  8
0
 10
8.7023
 20
11.5505
 30
0.0
 40
0.06
  1
MODE SWITCHES
  7
ROMANS
  0
TEXT
  8
0
 10
8.7906
 20
8.8069
 30
0.0
 40
0.06
  1
MODE SWITCHES
  7
ROMANS
  0
TEXT
  8
0
 10
11.1742
 20
9.423
 30
0.0
 40
0.0654
  1
RISK OF HAZARDOUS ENERGY! SEE OPERATING
 50
90.0
  7
ROMANS
  0
TEXT
  8
0
 10
11.28
 20
9.423
 30
0.0
 40
0.0654
  1
MANUAL FOR SPEAKER CONNECTION OPTIONS.
 50
90.0
  7
ROMANS
  0
TEXT
  8
0
 10
11.2353
 20
8.8112
 30
0.0
 40
0.0871
  1
WARNING:
 50
90.0
  7
ROMANS
  0
POLYLINE
  8
0
 66
     1
 10
0.0
 20
0.0
 30
0.0
 70
     1
  0
VERTEX
  8
0
 10
11.0633
 20
8.6807
 30
0.0
  0
VERTEX
  8
0
 10
11.3045
 20
8.5414
 30
0.0
  0
VERTEX
  8
0
 10
11.3045
 20
8.8199
 30
0.0
  0
SEQEND
  8
0
  0
POLYLINE
  8
0
 66
     1
 10
0.0
 20
0.0
 30
0.0
 70
     1
 40
0.0174
 41
0.0174
  0
VERTEX
  8
0
 10
11.2795
 20
8.672
 30
0.0
 42
1.0
  0
VERTEX
  8
0
 10
11.2795
 20
8.6894
 30
0.0
 42
1.0
  0
SEQEND
  8
0
  0
POLYLINE
  8
0
 66
     1
 10
0.0
 20
0.0
 30
0.0
 40
0.0261
  0
VERTEX
  8
0
 10
11.1177
 20
8.6807
 30
0.0
  0
VERTEX
  8
0
 10
11.2448
 20
8.6807
 30
0.0
 40
0.0
  0
SEQEND
  8
0
  0
LINE
  8
0
 10
17.5502
 20
10.6746
 30
0.0
 11
18.5502
 21
10.6746
 31
0.0
  0
LINE
  8
0
 10
17.5502
 20
10.6746
 30
0.0
 11
17.5502
 21
10.8746
 31
0.0
  0
LINE
  8
0
 10
17.5502
 20
10.8746
 30
0.0
 11
18.5502
 21
10.8746
 31
0.0
  0
LINE
  8
0
 10
17.6502
 20
10.6746
 30
0.0
 11
17.6502
 21
10.8746
 31
0.0
  0
LINE
  8
0
 10
17.7502
 20
10.6746
 30
0.0
 11
17.7502
 21
10.8746
 31
0.0
  0
LINE
  8
0
 10
17.8502
 20
10.6746
 30
0.0
 11
17.8502
 21
10.8746
 31
0.0
  0
LINE
  8
0
 10
17.9502
 20
10.6746
 30
0.0
 11
17.9502
 21
10.8746
 31
0.0
  0
LINE
  8
0
 10
18.0502
 20
10.6746
 30
0.0
 11
18.0502
 21
10.8746
 31
0.0
  0
LINE
  8
0
 10
18.1502
 20
10.6746
 30
0.0
 11
18.1502
 21
10.8746
 31
0.0
  0
LINE
  8
0
 10
18.2502
 20
10.6746
 30
0.0
 11
18.2502
 21
10.8746
 31
0.0
  0
LINE
  8
0
 10
18.3502
 20
10.6746
 30
0.0
 11
18.3502
 21
10.8746
 31
0.0
  0
LINE
  8
0
 10
18.4502
 20
10.6746
 30
0.0
 11
18.4502
 21
10.8746
 31
0.0
  0
LINE
  8
0
 10
18.5502
 20
10.6746
 30
0.0
 11
18.5502
 21
10.8746
 31
0.0
  0
TEXT
  8
0
 10
17.5686
 20
10.8978
 30
0.0
 40
0.075
  1
1
  7
ROMANS
  0
TEXT
  8
0
 10
17.8581
 20
10.8978
 30
0.0
 40
0.075
  1
4
  7
ROMANS
  0
TEXT
  8
0
 10
17.9615
 20
10.8936
 30
0.0
 40
0.075
  1
5
  7
ROMANS
  0
TEXT
  8
0
 10
18.0649
 20
10.8895
 30
0.0
 40
0.075
  1
6
  7
ROMANS
  0
TEXT
  8
0
 10
18.1641
 20
10.8895
 30
0.0
 40
0.075
  1
7
  7
ROMANS
  0
TEXT
  8
0
 10
18.4288
 20
10.8936
 30
0.0
 40
0.075
  1
10
  7
ROMANS
  0
TEXT
  8
0
 10
17.7315
 20
10.8967
 30
0.0
 40
0.0563
  1
FILTER ON
 50
90.0
  7
ROMANS
  0
TEXT
  8
0
 10
17.8303
 20
10.8936
 30
0.0
 40
0.0563
  1
33Hz FILTER
 50
90.0
  7
ROMANS
  0
TEXT
  8
0
 10
18.4343
 20
10.1788
 30
0.0
 40
0.0563
  1
FILTER OFF
 50
90.0
  7
ROMANS
  0
TEXT
  8
0
 10
18.3276
 20
10.1331
 30
0.0
 40
0.0563
  1
75Hz FILTER
 50
90.0
  7
ROMANS
  0
TEXT
  8
0
 10
17.8521
 20
11.4575
 30
0.0
 40
0.075
  1
FILTERS
  7
ROMANS
  0
TEXT
  8
0
 10
18.427
 20
10.8835
 30
0.0
 40
0.0563
  1
FILTER ON
 50
90.0
  7
ROMANS
  0
TEXT
  8
0
 10
18.3355
 20
10.8785
 30
0.0
 40
0.0563
  1
33Hz FILTER
 50
90.0
  7
ROMANS
  0
TEXT
  8
0
 10
17.7337
 20
10.1838
 30
0.0
 40
0.0563
  1
FILTER OFF
 50
90.0
  7
ROMANS
  0
TEXT
  8
0
 10
17.8314
 20
10.1342
 30
0.0
 40
0.0563
  1
75Hz FILTER
 50
90.0
  7
ROMANS
  0
POLYLINE
  8
0
 66
     1
 10
0.0
 20
0.0
 30
0.0
 40
0.06
 41
0.06
  0
VERTEX
  8
0
 10
17.701
 20
10.7821
 30
0.0
  0
VERTEX
  8
0
 10
17.701
 20
10.8276
 30
0.0
 41
0.0
  0
SEQEND
  8
0
  0
POLYLINE
  8
0
 66
     1
 10
0.0
 20
0.0
 30
0.0
 40
0.06
  0
VERTEX
  8
0
 10
17.701
 20
10.8276
 30
0.0
  0
VERTEX
  8
0
 10
17.701
 20
10.8647
 30
0.0
 40
0.0
  0
SEQEND
  8
0
  0
POLYLINE
  8
0
 66
     1
 10
0.0
 20
0.0
 30
0.0
 40
0.06
 41
0.06
  0
VERTEX
  8
0
 10
18.3999
 20
10.7821
 30
0.0
  0
VERTEX
  8
0
 10
18.3999
 20
10.8276
 30
0.0
 41
0.0
  0
SEQEND
  8
0
  0
POLYLINE
  8
0
 66
     1
 10
0.0
 20
0.0
 30
0.0
 40
0.06
  0
VERTEX
  8
0
 10
18.3999
 20
10.8276
 30
0.0
  0
VERTEX
  8
0
 10
18.3999
 20
10.8647
 30
0.0
 40
0.0
  0
SEQEND
  8
0
  0
POLYLINE
  8
0
 66
     1
 10
0.0
 20
0.0
 30
0.0
 40
0.06
 41
0.06
  0
VERTEX
  8
0
 10
17.8002
 20
10.7821
 30
0.0
  0
VERTEX
  8
0
 10
17.8002
 20
10.8276
 30
0.0
 41
0.0
  0
SEQEND
  8
0
  0
POLYLINE
  8
0
 66
     1
 10
0.0
 20
0.0
 30
0.0
 40
0.06
  0
VERTEX
  8
0
 10
17.8002
 20
10.8276
 30
0.0
  0
VERTEX
  8
0
 10
17.8002
 20
10.8647
 30
0.0
 40
0.0
  0
SEQEND
  8
0
  0
POLYLINE
  8
0
 66
     1
 10
0.0
 20
0.0
 30
0.0
 40
0.06
  0
VERTEX
  8
0
 10
18.2965
 20
10.7217
 30
0.0
  0
VERTEX
  8
0
 10
18.2965
 20
10.6845
 30
0.0
 40
0.0
  0
SEQEND
  8
0
  0
POLYLINE
  8
0
 66
     1
 10
0.0
 20
0.0
 30
0.0
 40
0.06
 41
0.06
  0
VERTEX
  8
0
 10
18.2965
 20
10.7672
 30
0.0
  0
VERTEX
  8
0
 10
18.2965
 20
10.7217
 30
0.0
 41
0.0
  0
SEQEND
  8
0
  0
LINE
  8
0
 10
18.6866
 20
10.6746
 30
0.0
 11
19.6866
 21
10.6746
 31
0.0
  0
LINE
  8
0
 10
18.6866
 20
10.8746
 30
0.0
 11
19.6866
 21
10.8746
 31
0.0
  0
TEXT
  8
0
 10
18.705
 20
10.8978
 30
0.0
 40
0.075
  1
1
  7
ROMANS
  0
LINE
  8
0
 10
18.7866
 20
10.6746
 30
0.0
 11
18.7866
 21
10.8746
 31
0.0
  0
LINE
  8
0
 10
18.6866
 20
10.6746
 30
0.0
 11
18.6866
 21
10.8746
 31
0.0
  0
TEXT
  8
0
 10
19.0979
 20
10.8936
 30
0.0
 40
0.075
  1
5
  7
ROMANS
  0
TEXT
  8
0
 10
18.9945
 20
10.8978
 30
0.0
 40
0.075
  1
4
  7
ROMANS
  0
LINE
  8
0
 10
19.0866
 20
10.6746
 30
0.0
 11
19.0866
 21
10.8746
 31
0.0
  0
LINE
  8
0
 10
18.9866
 20
10.6746
 30
0.0
 11
18.9866
 21
10.8746
 31
0.0
  0
LINE
  8
0
 10
18.8866
 20
10.6746
 30
0.0
 11
18.8866
 21
10.8746
 31
0.0
  0
TEXT
  8
0
 10
19.3005
 20
10.8895
 30
0.0
 40
0.075
  1
7
  7
ROMANS
  0
TEXT
  8
0
 10
19.2013
 20
10.8895
 30
0.0
 40
0.075
  1
6
  7
ROMANS
  0
LINE
  8
0
 10
19.3866
 20
10.6746
 30
0.0
 11
19.3866
 21
10.8746
 31
0.0
  0
LINE
  8
0
 10
19.2866
 20
10.6746
 30
0.0
 11
19.2866
 21
10.8746
 31
0.0
  0
LINE
  8
0
 10
19.1866
 20
10.6746
 30
0.0
 11
19.1866
 21
10.8746
 31
0.0
  0
POLYLINE
  8
0
 66
     1
 10
0.0
 20
0.0
 30
0.0
 40
0.06
 41
0.06
  0
VERTEX
  8
0
 10
19.2348
 20
10.7672
 30
0.0
  0
VERTEX
  8
0
 10
19.2348
 20
10.7217
 30
0.0
 41
0.0
  0
SEQEND
  8
0
  0
POLYLINE
  8
0
 66
     1
 10
0.0
 20
0.0
 30
0.0
 40
0.06
  0
VERTEX
  8
0
 10
19.2348
 20
10.7217
 30
0.0
  0
VERTEX
  8
0
 10
19.2348
 20
10.6845
 30
0.0
 40
0.0
  0
SEQEND
  8
0
  0
TEXT
  8
0
 10
19.5652
 20
10.8936
 30
0.0
 40
0.075
  1
10
  7
ROMANS
  0
LINE
  8
0
 10
19.6866
 20
10.6746
 30
0.0
 11
19.6866
 21
10.8746
 31
0.0
  0
LINE
  8
0
 10
19.5866
 20
10.6746
 30
0.0
 11
19.5866
 21
10.8746
 31
0.0
  0
LINE
  8
0
 10
19.4866
 20
10.6746
 30
0.0
 11
19.4866
 21
10.8746
 31
0.0
  0
POLYLINE
  8
0
 66
     1
 10
0.0
 20
0.0
 30
0.0
 40
0.06
 41
0.06
  0
VERTEX
  8
0
 10
19.3382
 20
10.7672
 30
0.0
  0
VERTEX
  8
0
 10
19.3382
 20
10.7217
 30
0.0
 41
0.0
  0
SEQEND
  8
0
  0
POLYLINE
  8
0
 66
     1
 10
0.0
 20
0.0
 30
0.0
 40
0.06
  0
VERTEX
  8
0
 10
19.3382
 20
10.7217
 30
0.0
  0
VERTEX
  8
0
 10
19.3382
 20
10.6845
 30
0.0
 40
0.0
  0
SEQEND
  8
0
  0
POLYLINE
  8
0
 66
     1
 10
0.0
 20
0.0
 30
0.0
 40
0.06
 41
0.06
  0
VERTEX
  8
0
 10
19.1347
 20
10.7672
 30
0.0
  0
VERTEX
  8
0
 10
19.1347
 20
10.7217
 30
0.0
 41
0.0
  0
SEQEND
  8
0
  0
POLYLINE
  8
0
 66
     1
 10
0.0
 20
0.0
 30
0.0
 40
0.06
  0
VERTEX
  8
0
 10
19.1347
 20
10.7217
 30
0.0
  0
VERTEX
  8
0
 10
19.1347
 20
10.6845
 30
0.0
 40
0.0
  0
SEQEND
  8
0
  0
POLYLINE
  8
0
 66
     1
 10
0.0
 20
0.0
 30
0.0
 40
0.06
  0
VERTEX
  8
0
 10
19.0354
 20
10.7217
 30
0.0
  0
VERTEX
  8
0
 10
19.0354
 20
10.6845
 30
0.0
 40
0.0
  0
SEQEND
  8
0
  0
POLYLINE
  8
0
 66
     1
 10
0.0
 20
0.0
 30
0.0
 40
0.06
 41
0.06
  0
VERTEX
  8
0
 10
19.0354
 20
10.7672
 30
0.0
  0
VERTEX
  8
0
 10
19.0354
 20
10.7217
 30
0.0
 41
0.0
  0
SEQEND
  8
0
  0
TEXT
  8
0
 10
18.8109
 20
10.901
 30
0.0
 40
0.075
  1
2
  7
ROMANS
  0
TEXT
  8
0
 10
18.9074
 20
10.8985
 30
0.0
 40
0.075
  1
3
  7
ROMANS
  0
TEXT
  8
0
 10
19.4102
 20
10.8883
 30
0.0
 40
0.075
  1
8
  7
ROMANS
  0
TEXT
  8
0
 10
19.5092
 20
10.8883
 30
0.0
 40
0.075
  1
9
  7
ROMANS
  0
TEXT
  8
0
 10
18.9023
 20
11.0094
 30
0.0
 40
0.0563
  1
STEREO MODE
  7
ROMANS
  0
TEXT
  8
0
 10
19.5652
 20
10.3403
 30
0.0
 40
0.075
  1
10
  7
ROMANS
  0
LINE
  8
0
 10
18.6866
 20
10.3213
 30
0.0
 11
19.6866
 21
10.3213
 31
0.0
  0
LINE
  8
0
 10
18.6866
 20
10.1213
 30
0.0
 11
19.6866
 21
10.1213
 31
0.0
  0
TEXT
  8
0
 10
18.9074
 20
10.3452
 30
0.0
 40
0.075
  1
3
  7
ROMANS
  0
TEXT
  8
0
 10
18.8109
 20
10.3477
 30
0.0
 40
0.075
  1
2
  7
ROMANS
  0
LINE
  8
0
 10
18.8866
 20
10.1213
 30
0.0
 11
18.8866
 21
10.3213
 31
0.0
  0
LINE
  8
0
 10
18.9866
 20
10.1213
 30
0.0
 11
18.9866
 21
10.3213
 31
0.0
  0
LINE
  8
0
 10
18.6866
 20
10.1213
 30
0.0
 11
18.6866
 21
10.3213
 31
0.0
  0
LINE
  8
0
 10
18.7866
 20
10.1213
 30
0.0
 11
18.7866
 21
10.3213
 31
0.0
  0
TEXT
  8
0
 10
18.705
 20
10.3445
 30
0.0
 40
0.075
  1
1
  7
ROMANS
  0
POLYLINE
  8
0
 66
     1
 10
0.0
 20
0.0
 30
0.0
 40
0.06
 41
0.06
  0
VERTEX
  8
0
 10
19.3382
 20
10.2138
 30
0.0
  0
VERTEX
  8
0
 10
19.3382
 20
10.1684
 30
0.0
 41
0.0
  0
SEQEND
  8
0
  0
POLYLINE
  8
0
 66
     1
 10
0.0
 20
0.0
 30
0.0
 40
0.06
  0
VERTEX
  8
0
 10
19.3382
 20
10.1684
 30
0.0
  0
VERTEX
  8
0
 10
19.3382
 20
10.1312
 30
0.0
 40
0.0
  0
SEQEND
  8
0
  0
TEXT
  8
0
 10
19.3005
 20
10.3362
 30
0.0
 40
0.075
  1
7
  7
ROMANS
  0
LINE
  8
0
 10
19.1866
 20
10.1213
 30
0.0
 11
19.1866
 21
10.3213
 31
0.0
  0
LINE
  8
0
 10
19.2866
 20
10.1213
 30
0.0
 11
19.2866
 21
10.3213
 31
0.0
  0
TEXT
  8
0
 10
19.2013
 20
10.3362
 30
0.0
 40
0.075
  1
6
  7
ROMANS
  0
LINE
  8
0
 10
19.0866
 20
10.1213
 30
0.0
 11
19.0866
 21
10.3213
 31
0.0
  0
TEXT
  8
0
 10
18.9945
 20
10.3445
 30
0.0
 40
0.075
  1
4
  7
ROMANS
  0
TEXT
  8
0
 10
19.0979
 20
10.3403
 30
0.0
 40
0.075
  1
5
  7
ROMANS
  0
TEXT
  8
0
 10
19.5092
 20
10.335
 30
0.0
 40
0.075
  1
9
  7
ROMANS
  0
TEXT
  8
0
 10
19.4102
 20
10.335
 30
0.0
 40
0.075
  1
8
  7
ROMANS
  0
LINE
  8
0
 10
19.4866
 20
10.1213
 30
0.0
 11
19.4866
 21
10.3213
 31
0.0
  0
LINE
  8
0
 10
19.5866
 20
10.1213
 30
0.0
 11
19.5866
 21
10.3213
 31
0.0
  0
LINE
  8
0
 10
19.3866
 20
10.1213
 30
0.0
 11
19.3866
 21
10.3213
 31
0.0
  0
LINE
  8
0
 10
19.6866
 20
10.1213
 30
0.0
 11
19.6866
 21
10.3213
 31
0.0
  0
TEXT
  8
0
 10
19.5652
 20
11.4895
 30
0.0
 40
0.075
  1
10
  7
ROMANS
  0
LINE
  8
0
 10
18.6866
 20
11.4705
 30
0.0
 11
19.6866
 21
11.4705
 31
0.0
  0
LINE
  8
0
 10
18.6866
 20
11.2705
 30
0.0
 11
19.6866
 21
11.2705
 31
0.0
  0
TEXT
  8
0
 10
18.9074
 20
11.4943
 30
0.0
 40
0.075
  1
3
  7
ROMANS
  0
TEXT
  8
0
 10
18.8109
 20
11.4969
 30
0.0
 40
0.075
  1
2
  7
ROMANS
  0
LINE
  8
0
 10
18.8866
 20
11.2705
 30
0.0
 11
18.8866
 21
11.4705
 31
0.0
  0
LINE
  8
0
 10
18.9866
 20
11.2705
 30
0.0
 11
18.9866
 21
11.4705
 31
0.0
  0
LINE
  8
0
 10
18.6866
 20
11.2705
 30
0.0
 11
18.6866
 21
11.4705
 31
0.0
  0
LINE
  8
0
 10
18.7866
 20
11.2705
 30
0.0
 11
18.7866
 21
11.4705
 31
0.0
  0
TEXT
  8
0
 10
18.705
 20
11.4936
 30
0.0
 40
0.075
  1
1
  7
ROMANS
  0
TEXT
  8
0
 10
19.3005
 20
11.4854
 30
0.0
 40
0.075
  1
7
  7
ROMANS
  0
LINE
  8
0
 10
19.1866
 20
11.2705
 30
0.0
 11
19.1866
 21
11.4705
 31
0.0
  0
LINE
  8
0
 10
19.2866
 20
11.2705
 30
0.0
 11
19.2866
 21
11.4705
 31
0.0
  0
TEXT
  8
0
 10
19.2013
 20
11.4854
 30
0.0
 40
0.075
  1
6
  7
ROMANS
  0
LINE
  8
0
 10
19.0866
 20
11.2705
 30
0.0
 11
19.0866
 21
11.4705
 31
0.0
  0
TEXT
  8
0
 10
18.9945
 20
11.4936
 30
0.0
 40
0.075
  1
4
  7
ROMANS
  0
TEXT
  8
0
 10
19.0979
 20
11.4895
 30
0.0
 40
0.075
  1
5
  7
ROMANS
  0
TEXT
  8
0
 10
19.5092
 20
11.4842
 30
0.0
 40
0.075
  1
9
  7
ROMANS
  0
TEXT
  8
0
 10
19.4102
 20
11.4842
 30
0.0
 40
0.075
  1
8
  7
ROMANS
  0
LINE
  8
0
 10
19.4866
 20
11.2705
 30
0.0
 11
19.4866
 21
11.4705
 31
0.0
  0
LINE
  8
0
 10
19.5866
 20
11.2705
 30
0.0
 11
19.5866
 21
11.4705
 31
0.0
  0
LINE
  8
0
 10
19.3866
 20
11.2705
 30
0.0
 11
19.3866
 21
11.4705
 31
0.0
  0
LINE
  8
0
 10
19.6866
 20
11.2705
 30
0.0
 11
19.6866
 21
11.4705
 31
0.0
  0
POLYLINE
  8
0
 66
     1
 10
0.0
 20
0.0
 30
0.0
 40
0.06
  0
VERTEX
  8
0
 10
19.0354
 20
10.2742
 30
0.0
  0
VERTEX
  8
0
 10
19.0354
 20
10.3114
 30
0.0
 40
0.0
  0
SEQEND
  8
0
  0
POLYLINE
  8
0
 66
     1
 10
0.0
 20
0.0
 30
0.0
 40
0.06
 41
0.06
  0
VERTEX
  8
0
 10
19.0354
 20
10.2288
 30
0.0
  0
VERTEX
  8
0
 10
19.0354
 20
10.2742
 30
0.0
 41
0.0
  0
SEQEND
  8
0
  0
POLYLINE
  8
0
 66
     1
 10
0.0
 20
0.0
 30
0.0
 40
0.06
 41
0.06
  0
VERTEX
  8
0
 10
19.1347
 20
10.2288
 30
0.0
  0
VERTEX
  8
0
 10
19.1347
 20
10.2742
 30
0.0
 41
0.0
  0
SEQEND
  8
0
  0
POLYLINE
  8
0
 66
     1
 10
0.0
 20
0.0
 30
0.0
 40
0.06
 41
0.06
  0
VERTEX
  8
0
 10
19.2348
 20
10.2288
 30
0.0
  0
VERTEX
  8
0
 10
19.2348
 20
10.2742
 30
0.0
 41
0.0
  0
SEQEND
  8
0
  0
POLYLINE
  8
0
 66
     1
 10
0.0
 20
0.0
 30
0.0
 40
0.06
  0
VERTEX
  8
0
 10
19.2348
 20
10.2742
 30
0.0
  0
VERTEX
  8
0
 10
19.2348
 20
10.3114
 30
0.0
 40
0.0
  0
SEQEND
  8
0
  0
POLYLINE
  8
0
 66
     1
 10
0.0
 20
0.0
 30
0.0
 40
0.06
  0
VERTEX
  8
0
 10
19.1347
 20
10.2742
 30
0.0
  0
VERTEX
  8
0
 10
19.1347
 20
10.3114
 30
0.0
 40
0.0
  0
SEQEND
  8
0
  0
TEXT
  8
0
 10
18.8356
 20
10.4655
 30
0.0
 40
0.0563
  1
PARALLEL MODE
  7
ROMANS
  0
TEXT
  8
0
 10
18.9647
 20
11.6056
 30
0.0
 40
0.0563
  1
CLIP LIMIT
  7
ROMANS
  0
POLYLINE
  8
0
 66
     1
 10
0.0
 20
0.0
 30
0.0
 40
0.06
 41
0.06
  0
VERTEX
  8
0
 10
18.7364
 20
11.3671
 30
0.0
  0
VERTEX
  8
0
 10
18.7364
 20
11.4126
 30
0.0
 41
0.0
  0
SEQEND
  8
0
  0
POLYLINE
  8
0
 66
     1
 10
0.0
 20
0.0
 30
0.0
 40
0.06
  0
VERTEX
  8
0
 10
18.7364
 20
11.4126
 30
0.0
  0
VERTEX
  8
0
 10
18.7364
 20
11.4497
 30
0.0
 40
0.0
  0
SEQEND
  8
0
  0
POLYLINE
  8
0
 66
     1
 10
0.0
 20
0.0
 30
0.0
 40
0.06
  0
VERTEX
  8
0
 10
19.6426
 20
11.418
 30
0.0
  0
VERTEX
  8
0
 10
19.6426
 20
11.4552
 30
0.0
 40
0.0
  0
SEQEND
  8
0
  0
POLYLINE
  8
0
 66
     1
 10
0.0
 20
0.0
 30
0.0
 40
0.06
 41
0.06
  0
VERTEX
  8
0
 10
19.6426
 20
11.3726
 30
0.0
  0
VERTEX
  8
0
 10
19.6426
 20
11.418
 30
0.0
 41
0.0
  0
SEQEND
  8
0
  0
POLYLINE
  8
0
 66
     1
 10
0.0
 20
0.0
 30
0.0
 40
0.06
 41
0.06
  0
VERTEX
  8
0
 10
20.2786
 20
11.3726
 30
0.0
  0
VERTEX
  8
0
 10
20.2786
 20
11.418
 30
0.0
 41
0.0
  0
SEQEND
  8
0
  0
POLYLINE
  8
0
 66
     1
 10
0.0
 20
0.0
 30
0.0
 40
0.06
  0
VERTEX
  8
0
 10
20.2786
 20
11.418
 30
0.0
  0
VERTEX
  8
0
 10
20.2786
 20
11.4552
 30
0.0
 40
0.0
  0
SEQEND
  8
0
  0
LINE
  8
0
 10
19.8227
 20
11.2705
 30
0.0
 11
20.8227
 21
11.2705
 31
0.0
  0
LINE
  8
0
 10
19.8227
 20
11.4705
 30
0.0
 11
20.8227
 21
11.4705
 31
0.0
  0
TEXT
  8
0
 10
20.7013
 20
11.4895
 30
0.0
 40
0.075
  1
10
  7
ROMANS
  0
POLYLINE
  8
0
 66
     1
 10
0.0
 20
0.0
 30
0.0
 40
0.06
  0
VERTEX
  8
0
 10
20.1715
 20
11.4126
 30
0.0
  0
VERTEX
  8
0
 10
20.1715
 20
11.4497
 30
0.0
 40
0.0
  0
SEQEND
  8
0
  0
LINE
  8
0
 10
19.9227
 20
11.2705
 30
0.0
 11
19.9227
 21
11.4705
 31
0.0
  0
LINE
  8
0
 10
19.8227
 20
11.2705
 30
0.0
 11
19.8227
 21
11.4705
 31
0.0
  0
LINE
  8
0
 10
20.1227
 20
11.2705
 30
0.0
 11
20.1227
 21
11.4705
 31
0.0
  0
LINE
  8
0
 10
20.0227
 20
11.2705
 30
0.0
 11
20.0227
 21
11.4705
 31
0.0
  0
POLYLINE
  8
0
 66
     1
 10
0.0
 20
0.0
 30
0.0
 40
0.06
 41
0.06
  0
VERTEX
  8
0
 10
20.1715
 20
11.3671
 30
0.0
  0
VERTEX
  8
0
 10
20.1715
 20
11.4126
 30
0.0
 41
0.0
  0
SEQEND
  8
0
  0
TEXT
  8
0
 10
19.8411
 20
11.4936
 30
0.0
 40
0.075
  1
1
  7
ROMANS
  0
TEXT
  8
0
 10
19.947
 20
11.4969
 30
0.0
 40
0.075
  1
2
  7
ROMANS
  0
TEXT
  8
0
 10
20.0435
 20
11.4943
 30
0.0
 40
0.075
  1
3
  7
ROMANS
  0
LINE
  8
0
 10
20.5227
 20
11.2705
 30
0.0
 11
20.5227
 21
11.4705
 31
0.0
  0
LINE
  8
0
 10
20.7227
 20
11.2705
 30
0.0
 11
20.7227
 21
11.4705
 31
0.0
  0
LINE
  8
0
 10
20.6227
 20
11.2705
 30
0.0
 11
20.6227
 21
11.4705
 31
0.0
  0
LINE
  8
0
 10
20.2227
 20
11.2705
 30
0.0
 11
20.2227
 21
11.4705
 31
0.0
  0
LINE
  8
0
 10
20.4227
 20
11.2705
 30
0.0
 11
20.4227
 21
11.4705
 31
0.0
  0
LINE
  8
0
 10
20.3227
 20
11.2705
 30
0.0
 11
20.3227
 21
11.4705
 31
0.0
  0
TEXT
  8
0
 10
20.4366
 20
11.4854
 30
0.0
 40
0.075
  1
7
  7
ROMANS
  0
TEXT
  8
0
 10
20.234
 20
11.4895
 30
0.0
 40
0.075
  1
5
  7
ROMANS
  0
TEXT
  8
0
 10
20.1306
 20
11.4936
 30
0.0
 40
0.075
  1
4
  7
ROMANS
  0
TEXT
  8
0
 10
20.3373
 20
11.4854
 30
0.0
 40
0.075
  1
6
  7
ROMANS
  0
TEXT
  8
0
 10
20.5463
 20
11.4842
 30
0.0
 40
0.075
  1
8
  7
ROMANS
  0
TEXT
  8
0
 10
20.6453
 20
11.4842
 30
0.0
 40
0.075
  1
9
  7
ROMANS
  0
LINE
  8
0
 10
20.8227
 20
11.2705
 30
0.0
 11
20.8227
 21
11.4705
 31
0.0
  0
POLYLINE
  8
0
 66
     1
 10
0.0
 20
0.0
 30
0.0
 40
0.06
 41
0.06
  0
VERTEX
  8
0
 10
20.3726
 20
11.3671
 30
0.0
  0
VERTEX
  8
0
 10
20.3726
 20
11.4126
 30
0.0
 41
0.0
  0
SEQEND
  8
0
  0
POLYLINE
  8
0
 66
     1
 10
0.0
 20
0.0
 30
0.0
 40
0.06
  0
VERTEX
  8
0
 10
20.3726
 20
11.4126
 30
0.0
  0
VERTEX
  8
0
 10
20.3726
 20
11.4497
 30
0.0
 40
0.0
  0
SEQEND
  8
0
  0
POLYLINE
  8
0
 66
     1
 10
0.0
 20
0.0
 30
0.0
 40
0.06
  0
VERTEX
  8
0
 10
20.4797
 20
11.418
 30
0.0
  0
VERTEX
  8
0
 10
20.4797
 20
11.4552
 30
0.0
 40
0.0
  0
SEQEND
  8
0
  0
POLYLINE
  8
0
 66
     1
 10
0.0
 20
0.0
 30
0.0
 40
0.06
 41
0.06
  0
VERTEX
  8
0
 10
20.4797
 20
11.3726
 30
0.0
  0
VERTEX
  8
0
 10
20.4797
 20
11.418
 30
0.0
 41
0.0
  0
SEQEND
  8
0
  0
TEXT
  8
0
 10
19.9553
 20
11.6043
 30
0.0
 40
0.0563
  1
SWITCH SETTINGS
  7
ROMANS
  0
TEXT
  8
0
 10
19.795
 20
11.1348
 30
0.0
 40
0.0459
  1
TO BRIDGE CH1 AND CH2 SET
  7
ROMANS
  0
TEXT
  8
0
 10
19.795
 20
11.0604
 30
0.0
 40
0.0459
  1
INPUT SWITCHES AS SHOWN. USE
  7
ROMANS
  0
TEXT
  8
0
 10
19.795
 20
10.9861
 30
0.0
 40
0.0459
  1
CH1 INPUT AND GAIN CONTROL.
  7
ROMANS
  0
TEXT
  8
0
 10
19.795
 20
10.9117
 30
0.0
 40
0.0459
  1
CONNECT SPEAKER AS SHOWN.
  7
ROMANS
  0
TEXT
  8
0
 10
19.795
 20
10.5659
 30
0.0
 40
0.0459
  1
TO BRIDGE CH3 AND CH4 SET
  7
ROMANS
  0
TEXT
  8
0
 10
19.795
 20
10.4916
 30
0.0
 40
0.0459
  1
INPUT SWITCHES AS SHOWN. USE
  7
ROMANS
  0
TEXT
  8
0
 10
19.795
 20
10.4172
 30
0.0
 40
0.0459
  1
CH3 INPUT AND GAIN CONTROL.
  7
ROMANS
  0
TEXT
  8
0
 10
19.795
 20
10.3429
 30
0.0
 40
0.0459
  1
CONNECT SPEAKER AS SHOWN.
  7
ROMANS
  0
TEXT
  8
0
 10
18.6861
 20
11.1808
 30
0.0
 40
0.056
  1
OFF
  7
ROMANS
  0
TEXT
  8
0
 10
19.5178
 20
11.1808
 30
0.0
 40
0.056
  1
OFF
  7
ROMANS
  0
CIRCLE
  8
0
 10
21.4335
 20
10.8903
 30
0.0
 40
0.0578
  0
POLYLINE
  8
0
 66
     1
 10
0.0
 20
0.0
 30
0.0
 40
0.0052
 41
0.0052
  0
VERTEX
  8
0
 10
21.391
 20
10.9294
 30
0.0
  0
VERTEX
  8
0
 10
21.4574
 20
10.8377
 30
0.0
  0
SEQEND
  8
0
  0
POLYLINE
  8
0
 66
     1
 10
0.0
 20
0.0
 30
0.0
 40
0.0052
 41
0.0052
  0
VERTEX
  8
0
 10
21.4096
 20
10.9429
 30
0.0
  0
VERTEX
  8
0
 10
21.476
 20
10.8512
 30
0.0
  0
SEQEND
  8
0
  0
POLYLINE
  8
0
 66
     1
 10
0.0
 20
0.0
 30
0.0
 40
0.0052
 41
0.0052
  0
VERTEX
  8
0
 10
21.391
 20
11.0919
 30
0.0
  0
VERTEX
  8
0
 10
21.4574
 20
11.0002
 30
0.0
  0
SEQEND
  8
0
  0
CIRCLE
  8
0
 10
21.4335
 20
11.0528
 30
0.0
 40
0.0578
  0
POLYLINE
  8
0
 66
     1
 10
0.0
 20
0.0
 30
0.0
 40
0.0052
 41
0.0052
  0
VERTEX
  8
0
 10
21.4096
 20
11.1054
 30
0.0
  0
VERTEX
  8
0
 10
21.476
 20
11.0137
 30
0.0
  0
SEQEND
  8
0
  0
POLYLINE
  8
0
 66
     1
 10
0.0
 20
0.0
 30
0.0
 40
0.0052
 41
0.0052
  0
VERTEX
  8
0
 10
21.391
 20
11.2544
 30
0.0
  0
VERTEX
  8
0
 10
21.4574
 20
11.1627
 30
0.0
  0
SEQEND
  8
0
  0
CIRCLE
  8
0
 10
21.4335
 20
11.2153
 30
0.0
 40
0.0578
  0
POLYLINE
  8
0
 66
     1
 10
0.0
 20
0.0
 30
0.0
 40
0.0052
 41
0.0052
  0
VERTEX
  8
0
 10
21.4096
 20
11.2679
 30
0.0
  0
VERTEX
  8
0
 10
21.476
 20
11.1762
 30
0.0
  0
SEQEND
  8
0
  0
POLYLINE
  8
0
 66
     1
 10
0.0
 20
0.0
 30
0.0
 40
0.0052
 41
0.0052
  0
VERTEX
  8
0
 10
21.391
 20
11.4169
 30
0.0
  0
VERTEX
  8
0
 10
21.4574
 20
11.3252
 30
0.0
  0
SEQEND
  8
0
  0
CIRCLE
  8
0
 10
21.4335
 20
11.3778
 30
0.0
 40
0.0578
  0
POLYLINE
  8
0
 66
     1
 10
0.0
 20
0.0
 30
0.0
 40
0.0052
 41
0.0052
  0
VERTEX
  8
0
 10
21.4096
 20
11.4304
 30
0.0
  0
VERTEX
  8
0
 10
21.476
 20
11.3387
 30
0.0
  0
SEQEND
  8
0
  0
POLYLINE
  8
0
 66
     1
 10
0.0
 20
0.0
 30
0.0
 40
0.0052
 41
0.0052
  0
VERTEX
  8
0
 10
21.391
 20
11.5794
 30
0.0
  0
VERTEX
  8
0
 10
21.4574
 20
11.4877
 30
0.0
  0
SEQEND
  8
0
  0
CIRCLE
  8
0
 10
21.4335
 20
11.5403
 30
0.0
 40
0.0578
  0
POLYLINE
  8
0
 66
     1
 10
0.0
 20
0.0
 30
0.0
 40
0.0052
 41
0.0052
  0
VERTEX
  8
0
 10
21.4096
 20
11.5929
 30
0.0
  0
VERTEX
  8
0
 10
21.476
 20
11.5012
 30
0.0
  0
SEQEND
  8
0
  0
POLYLINE
  8
0
 66
     1
 10
0.0
 20
0.0
 30
0.0
 40
0.0052
 41
0.0052
  0
VERTEX
  8
0
 10
21.391
 20
11.7419
 30
0.0
  0
VERTEX
  8
0
 10
21.4574
 20
11.6502
 30
0.0
  0
SEQEND
  8
0
  0
CIRCLE
  8
0
 10
21.4335
 20
11.7028
 30
0.0
 40
0.0578
  0
POLYLINE
  8
0
 66
     1
 10
0.0
 20
0.0
 30
0.0
 40
0.0052
 41
0.0052
  0
VERTEX
  8
0
 10
21.4096
 20
11.7554
 30
0.0
  0
VERTEX
  8
0
 10
21.476
 20
11.6637
 30
0.0
  0
SEQEND
  8
0
  0
POLYLINE
  8
0
 66
     1
 10
0.0
 20
0.0
 30
0.0
 40
0.0052
 41
0.0052
  0
VERTEX
  8
0
 10
21.5535
 20
10.9294
 30
0.0
  0
VERTEX
  8
0
 10
21.6199
 20
10.8377
 30
0.0
  0
SEQEND
  8
0
  0
CIRCLE
  8
0
 10
21.596
 20
10.8903
 30
0.0
 40
0.0578
  0
POLYLINE
  8
0
 66
     1
 10
0.0
 20
0.0
 30
0.0
 40
0.0052
 41
0.0052
  0
VERTEX
  8
0
 10
21.5721
 20
10.9429
 30
0.0
  0
VERTEX
  8
0
 10
21.6385
 20
10.8512
 30
0.0
  0
SEQEND
  8
0
  0
POLYLINE
  8
0
 66
     1
 10
0.0
 20
0.0
 30
0.0
 40
0.0052
 41
0.0052
  0
VERTEX
  8
0
 10
21.5535
 20
11.0919
 30
0.0
  0
VERTEX
  8
0
 10
21.6199
 20
11.0002
 30
0.0
  0
SEQEND
  8
0
  0
CIRCLE
  8
0
 10
21.596
 20
11.0528
 30
0.0
 40
0.0578
  0
POLYLINE
  8
0
 66
     1
 10
0.0
 20
0.0
 30
0.0
 40
0.0052
 41
0.0052
  0
VERTEX
  8
0
 10
21.5721
 20
11.1054
 30
0.0
  0
VERTEX
  8
0
 10
21.6385
 20
11.0137
 30
0.0
  0
SEQEND
  8
0
  0
POLYLINE
  8
0
 66
     1
 10
0.0
 20
0.0
 30
0.0
 40
0.0052
 41
0.0052
  0
VERTEX
  8
0
 10
21.5535
 20
11.2544
 30
0.0
  0
VERTEX
  8
0
 10
21.6199
 20
11.1627
 30
0.0
  0
SEQEND
  8
0
  0
CIRCLE
  8
0
 10
21.596
 20
11.2153
 30
0.0
 40
0.0578
  0
POLYLINE
  8
0
 66
     1
 10
0.0
 20
0.0
 30
0.0
 40
0.0052
 41
0.0052
  0
VERTEX
  8
0
 10
21.5721
 20
11.2679
 30
0.0
  0
VERTEX
  8
0
 10
21.6385
 20
11.1762
 30
0.0
  0
SEQEND
  8
0
  0
POLYLINE
  8
0
 66
     1
 10
0.0
 20
0.0
 30
0.0
 40
0.0052
 41
0.0052
  0
VERTEX
  8
0
 10
21.5535
 20
11.4169
 30
0.0
  0
VERTEX
  8
0
 10
21.6199
 20
11.3252
 30
0.0
  0
SEQEND
  8
0
  0
CIRCLE
  8
0
 10
21.596
 20
11.3778
 30
0.0
 40
0.0578
  0
POLYLINE
  8
0
 66
     1
 10
0.0
 20
0.0
 30
0.0
 40
0.0052
 41
0.0052
  0
VERTEX
  8
0
 10
21.5721
 20
11.4304
 30
0.0
  0
VERTEX
  8
0
 10
21.6385
 20
11.3387
 30
0.0
  0
SEQEND
  8
0
  0
POLYLINE
  8
0
 66
     1
 10
0.0
 20
0.0
 30
0.0
 40
0.0052
 41
0.0052
  0
VERTEX
  8
0
 10
21.5535
 20
11.5794
 30
0.0
  0
VERTEX
  8
0
 10
21.6199
 20
11.4877
 30
0.0
  0
SEQEND
  8
0
  0
CIRCLE
  8
0
 10
21.596
 20
11.5403
 30
0.0
 40
0.0578
  0
POLYLINE
  8
0
 66
     1
 10
0.0
 20
0.0
 30
0.0
 40
0.0052
 41
0.0052
  0
VERTEX
  8
0
 10
21.5721
 20
11.5929
 30
0.0
  0
VERTEX
  8
0
 10
21.6385
 20
11.5012
 30
0.0
  0
SEQEND
  8
0
  0
POLYLINE
  8
0
 66
     1
 10
0.0
 20
0.0
 30
0.0
 40
0.0052
 41
0.0052
  0
VERTEX
  8
0
 10
21.5535
 20
11.7419
 30
0.0
  0
VERTEX
  8
0
 10
21.6199
 20
11.6502
 30
0.0
  0
SEQEND
  8
0
  0
CIRCLE
  8
0
 10
21.596
 20
11.7028
 30
0.0
 40
0.0578
  0
POLYLINE
  8
0
 66
     1
 10
0.0
 20
0.0
 30
0.0
 40
0.0052
 41
0.0052
  0
VERTEX
  8
0
 10
21.5721
 20
11.7554
 30
0.0
  0
VERTEX
  8
0
 10
21.6385
 20
11.6637
 30
0.0
  0
SEQEND
  8
0
  0
LINE
  8
0
 10
21.7121
 20
11.4069
 30
0.0
 11
21.7121
 21
11.1862
 31
0.0
  0
LINE
  8
0
 10
21.7501
 20
11.4069
 30
0.0
 11
21.7501
 21
11.4276
 31
0.0
  0
LINE
  8
0
 10
21.6537
 20
11.3778
 30
0.0
 11
21.7121
 21
11.3778
 31
0.0
  0
LINE
  8
0
 10
21.6537
 20
11.2153
 30
0.0
 11
21.7121
 21
11.2153
 31
0.0
  0
LINE
  8
0
 10
21.7121
 20
11.4069
 30
0.0
 11
21.7501
 21
11.4069
 31
0.0
  0
LINE
  8
0
 10
21.7501
 20
11.4276
 30
0.0
 11
21.8502
 21
11.4276
 31
0.0
  0
LINE
  8
0
 10
21.8502
 20
11.4276
 30
0.0
 11
21.8502
 21
11.4069
 31
0.0
  0
LINE
  8
0
 10
21.8502
 20
11.4069
 30
0.0
 11
21.9917
 21
11.4758
 31
0.0
  0
LINE
  8
0
 10
21.9917
 20
11.4758
 30
0.0
 11
21.9917
 21
11.1172
 31
0.0
  0
LINE
  8
0
 10
21.8502
 20
11.1862
 30
0.0
 11
21.9917
 21
11.1172
 31
0.0
  0
LINE
  8
0
 10
21.8502
 20
11.1655
 30
0.0
 11
21.8502
 21
11.1862
 31
0.0
  0
LINE
  8
0
 10
21.7501
 20
11.1655
 30
0.0
 11
21.8502
 21
11.1655
 31
0.0
  0
LINE
  8
0
 10
21.7121
 20
11.1862
 30
0.0
 11
21.7501
 21
11.1862
 31
0.0
  0
LINE
  8
0
 10
21.7501
 20
11.1862
 30
0.0
 11
21.7501
 21
11.1655
 31
0.0
  0
TEXT
  8
0
 10
21.7225
 20
11.2689
 30
0.0
 40
0.06
  1
MONO
  7
ROMAND
  0
TEXT
  8
0
 10
21.757
 20
11.3482
 30
0.0
 40
0.06
  1
+
  7
ROMAND
  0
TEXT
  8
0
 10
21.7604
 20
11.1965
 30
0.0
 40
0.06
  1
-
  7
ROMAND
  0
POLYLINE
  8
0
 66
     1
 10
0.0
 20
0.0
 30
0.0
 40
0.008
 41
0.008
  0
VERTEX
  8
0
 10
21.7121
 20
11.2965
 30
0.0
  0
VERTEX
  8
0
 10
21.7121
 20
11.4069
 30
0.0
  0
VERTEX
  8
0
 10
21.7501
 20
11.4069
 30
0.0
  0
VERTEX
  8
0
 10
21.7501
 20
11.4276
 30
0.0
  0
VERTEX
  8
0
 10
21.8502
 20
11.4276
 30
0.0
  0
VERTEX
  8
0
 10
21.8502
 20
11.4069
 30
0.0
  0
VERTEX
  8
0
 10
21.9917
 20
11.4758
 30
0.0
  0
VERTEX
  8
0
 10
21.9917
 20
11.1172
 30
0.0
  0
VERTEX
  8
0
 10
21.8502
 20
11.1862
 30
0.0
  0
VERTEX
  8
0
 10
21.8502
 20
11.1655
 30
0.0
  0
VERTEX
  8
0
 10
21.7501
 20
11.1655
 30
0.0
  0
VERTEX
  8
0
 10
21.7501
 20
11.1862
 30
0.0
  0
VERTEX
  8
0
 10
21.7121
 20
11.1862
 30
0.0
  0
VERTEX
  8
0
 10
21.7121
 20
11.2965
 30
0.0
  0
SEQEND
  8
0
  0
POLYLINE
  8
0
 66
     1
 10
0.0
 20
0.0
 30
0.0
 40
0.008
 41
0.008
  0
VERTEX
  8
0
 10
21.6537
 20
11.3778
 30
0.0
  0
VERTEX
  8
0
 10
21.7121
 20
11.3778
 30
0.0
  0
SEQEND
  8
0
  0
POLYLINE
  8
0
 66
     1
 10
0.0
 20
0.0
 30
0.0
 40
0.008
 41
0.008
  0
VERTEX
  8
0
 10
21.6537
 20
11.2153
 30
0.0
  0
VERTEX
  8
0
 10
21.7121
 20
11.2153
 30
0.0
  0
SEQEND
  8
0
  0
POLYLINE
  8
0
 66
     1
 10
0.0
 20
0.0
 30
0.0
 40
0.008
 41
0.008
  0
VERTEX
  8
0
 10
21.3174
 20
11.2965
 30
0.0
  0
VERTEX
  8
0
 10
21.3174
 20
11.4069
 30
0.0
  0
VERTEX
  8
0
 10
21.2794
 20
11.4069
 30
0.0
  0
VERTEX
  8
0
 10
21.2794
 20
11.4276
 30
0.0
  0
VERTEX
  8
0
 10
21.1793
 20
11.4276
 30
0.0
  0
VERTEX
  8
0
 10
21.1793
 20
11.4069
 30
0.0
  0
VERTEX
  8
0
 10
21.0377
 20
11.4758
 30
0.0
  0
VERTEX
  8
0
 10
21.0377
 20
11.1172
 30
0.0
  0
VERTEX
  8
0
 10
21.1793
 20
11.1862
 30
0.0
  0
VERTEX
  8
0
 10
21.1793
 20
11.1655
 30
0.0
  0
VERTEX
  8
0
 10
21.2794
 20
11.1655
 30
0.0
  0
VERTEX
  8
0
 10
21.2794
 20
11.1862
 30
0.0
  0
VERTEX
  8
0
 10
21.3174
 20
11.1862
 30
0.0
  0
VERTEX
  8
0
 10
21.3174
 20
11.2965
 30
0.0
  0
SEQEND
  8
0
  0
LINE
  8
0
 10
21.0377
 20
11.4758
 30
0.0
 11
21.0377
 21
11.1172
 31
0.0
  0
LINE
  8
0
 10
21.1793
 20
11.4069
 30
0.0
 11
21.0377
 21
11.4758
 31
0.0
  0
LINE
  8
0
 10
21.1793
 20
11.1862
 30
0.0
 11
21.0377
 21
11.1172
 31
0.0
  0
TEXT
  8
0
 10
21.269
 20
11.1965
 30
0.0
 40
0.06
  1
-
  7
ROMAND
 71
     2
  0
TEXT
  8
0
 10
21.2725
 20
11.3482
 30
0.0
 40
0.06
  1
+
  7
ROMAND
 71
     2
  0
LINE
  8
0
 10
21.3174
 20
11.1862
 30
0.0
 11
21.2794
 21
11.1862
 31
0.0
  0
LINE
  8
0
 10
21.3174
 20
11.4069
 30
0.0
 11
21.2794
 21
11.4069
 31
0.0
  0
LINE
  8
0
 10
21.3174
 20
11.4069
 30
0.0
 11
21.3174
 21
11.1862
 31
0.0
  0
LINE
  8
0
 10
21.2794
 20
11.1862
 30
0.0
 11
21.2794
 21
11.1655
 31
0.0
  0
LINE
  8
0
 10
21.2794
 20
11.1655
 30
0.0
 11
21.1793
 21
11.1655
 31
0.0
  0
LINE
  8
0
 10
21.1793
 20
11.1655
 30
0.0
 11
21.1793
 21
11.1862
 31
0.0
  0
LINE
  8
0
 10
21.1793
 20
11.4276
 30
0.0
 11
21.1793
 21
11.4069
 31
0.0
  0
LINE
  8
0
 10
21.2794
 20
11.4276
 30
0.0
 11
21.1793
 21
11.4276
 31
0.0
  0
LINE
  8
0
 10
21.2794
 20
11.4069
 30
0.0
 11
21.2794
 21
11.4276
 31
0.0
  0
POLYLINE
  8
0
 66
     1
 10
0.0
 20
0.0
 30
0.0
 40
0.008
 41
0.008
  0
VERTEX
  8
0
 10
21.3757
 20
11.2153
 30
0.0
  0
VERTEX
  8
0
 10
21.3174
 20
11.2153
 30
0.0
  0
SEQEND
  8
0
  0
POLYLINE
  8
0
 66
     1
 10
0.0
 20
0.0
 30
0.0
 40
0.008
 41
0.008
  0
VERTEX
  8
0
 10
21.3757
 20
11.3778
 30
0.0
  0
VERTEX
  8
0
 10
21.3174
 20
11.3778
 30
0.0
  0
SEQEND
  8
0
  0
TEXT
  8
0
 10
21.0493
 20
11.2689
 30
0.0
 40
0.06
  1
MONO
  7
ROMAND
  0
POLYLINE
  8
0
 66
     1
 10
0.0
 20
0.0
 30
0.0
 40
0.04
 41
0.02
  0
VERTEX
  8
0
 10
21.8662
 20
11.5569
 30
0.0
  0
VERTEX
  8
0
 10
21.7466
 20
11.4841
 30
0.0
 40
0.02
  0
SEQEND
  8
0
  0
POLYLINE
  8
0
 66
     1
 10
0.0
 20
0.0
 30
0.0
 40
0.05
  0
VERTEX
  8
0
 10
21.7466
 20
11.4841
 30
0.0
  0
VERTEX
  8
0
 10
21.7026
 20
11.4512
 30
0.0
 40
0.0
  0
SEQEND
  8
0
  0
POLYLINE
  8
0
 66
     1
 10
0.0
 20
0.0
 30
0.0
 40
0.02
 41
0.02
  0
VERTEX
  8
0
 10
21.9839
 20
11.5644
 30
0.0
  0
VERTEX
  8
0
 10
21.8663
 20
11.5078
 30
0.0
  0
VERTEX
  8
0
 10
21.8692
 20
11.5721
 30
0.0
  0
VERTEX
  8
0
 10
21.7466
 20
11.4841
 30
0.0
  0
SEQEND
  8
0
  0
POLYLINE
  8
0
 66
     1
 10
0.0
 20
0.0
 30
0.0
 40
0.05
 41
0.02
  0
VERTEX
  8
0
 10
21.9839
 20
11.5644
 30
0.0
  0
VERTEX
  8
0
 10
21.8663
 20
11.5078
 30
0.0
 40
0.02
  0
SEQEND
  8
0
  0
POLYLINE
  8
0
 66
     1
 10
0.0
 20
0.0
 30
0.0
 40
0.05
 41
0.02
  0
VERTEX
  8
0
 10
21.9839
 20
11.0286
 30
0.0
  0
VERTEX
  8
0
 10
21.8663
 20
11.0852
 30
0.0
 40
0.02
  0
SEQEND
  8
0
  0
POLYLINE
  8
0
 66
     1
 10
0.0
 20
0.0
 30
0.0
 40
0.02
 41
0.02
  0
VERTEX
  8
0
 10
21.9839
 20
11.0286
 30
0.0
  0
VERTEX
  8
0
 10
21.8663
 20
11.0852
 30
0.0
  0
VERTEX
  8
0
 10
21.8692
 20
11.0209
 30
0.0
  0
VERTEX
  8
0
 10
21.7466
 20
11.1089
 30
0.0
  0
SEQEND
  8
0
  0
POLYLINE
  8
0
 66
     1
 10
0.0
 20
0.0
 30
0.0
 40
0.05
  0
VERTEX
  8
0
 10
21.7466
 20
11.1089
 30
0.0
  0
VERTEX
  8
0
 10
21.7026
 20
11.1418
 30
0.0
 40
0.0
  0
SEQEND
  8
0
  0
POLYLINE
  8
0
 66
     1
 10
0.0
 20
0.0
 30
0.0
 40
0.04
 41
0.02
  0
VERTEX
  8
0
 10
21.8662
 20
11.0361
 30
0.0
  0
VERTEX
  8
0
 10
21.7466
 20
11.1089
 30
0.0
 40
0.02
  0
SEQEND
  8
0
  0
POLYLINE
  8
0
 66
     1
 10
0.0
 20
0.0
 30
0.0
 40
0.05
 41
0.02
  0
VERTEX
  8
0
 10
21.0455
 20
11.5644
 30
0.0
  0
VERTEX
  8
0
 10
21.1632
 20
11.5078
 30
0.0
 40
0.02
  0
SEQEND
  8
0
  0
POLYLINE
  8
0
 66
     1
 10
0.0
 20
0.0
 30
0.0
 40
0.02
 41
0.02
  0
VERTEX
  8
0
 10
21.0455
 20
11.5644
 30
0.0
  0
VERTEX
  8
0
 10
21.1632
 20
11.5078
 30
0.0
  0
VERTEX
  8
0
 10
21.1603
 20
11.5721
 30
0.0
  0
VERTEX
  8
0
 10
21.2829
 20
11.4841
 30
0.0
  0
SEQEND
  8
0
  0
POLYLINE
  8
0
 66
     1
 10
0.0
 20
0.0
 30
0.0
 40
0.05
  0
VERTEX
  8
0
 10
21.2829
 20
11.4841
 30
0.0
  0
VERTEX
  8
0
 10
21.3269
 20
11.4512
 30
0.0
 40
0.0
  0
SEQEND
  8
0
  0
POLYLINE
  8
0
 66
     1
 10
0.0
 20
0.0
 30
0.0
 40
0.04
 41
0.02
  0
VERTEX
  8
0
 10
21.1633
 20
11.5569
 30
0.0
  0
VERTEX
  8
0
 10
21.2829
 20
11.4841
 30
0.0
 40
0.02
  0
SEQEND
  8
0
  0
POLYLINE
  8
0
 66
     1
 10
0.0
 20
0.0
 30
0.0
 40
0.02
 41
0.02
  0
VERTEX
  8
0
 10
21.0455
 20
11.0286
 30
0.0
  0
VERTEX
  8
0
 10
21.1632
 20
11.0852
 30
0.0
  0
VERTEX
  8
0
 10
21.1603
 20
11.0209
 30
0.0
  0
VERTEX
  8
0
 10
21.2829
 20
11.1089
 30
0.0
  0
SEQEND
  8
0
  0
POLYLINE
  8
0
 66
     1
 10
0.0
 20
0.0
 30
0.0
 40
0.05
 41
0.02
  0
VERTEX
  8
0
 10
21.0455
 20
11.0286
 30
0.0
  0
VERTEX
  8
0
 10
21.1632
 20
11.0852
 30
0.0
 40
0.02
  0
SEQEND
  8
0
  0
POLYLINE
  8
0
 66
     1
 10
0.0
 20
0.0
 30
0.0
 40
0.04
 41
0.02
  0
VERTEX
  8
0
 10
21.1633
 20
11.0361
 30
0.0
  0
VERTEX
  8
0
 10
21.2829
 20
11.1089
 30
0.0
 40
0.02
  0
SEQEND
  8
0
  0
POLYLINE
  8
0
 66
     1
 10
0.0
 20
0.0
 30
0.0
 40
0.05
  0
VERTEX
  8
0
 10
21.2829
 20
11.1089
 30
0.0
  0
VERTEX
  8
0
 10
21.3269
 20
11.1418
 30
0.0
 40
0.0
  0
SEQEND
  8
0
  0
CIRCLE
  8
0
 10
16.8822
 20
10.7392
 30
0.0
 40
0.0722
  0
POLYLINE
  8
0
 66
     1
 10
0.0
 20
0.0
 30
0.0
 40
0.0065
 41
0.0065
  0
VERTEX
  8
0
 10
16.8291
 20
10.7881
 30
0.0
  0
VERTEX
  8
0
 10
16.9121
 20
10.6734
 30
0.0
  0
SEQEND
  8
0
  0
CIRCLE
  8
0
 10
16.6791
 20
10.7392
 30
0.0
 40
0.0722
  0
POLYLINE
  8
0
 66
     1
 10
0.0
 20
0.0
 30
0.0
 40
0.0065
 41
0.0065
  0
VERTEX
  8
0
 10
16.626
 20
10.7881
 30
0.0
  0
VERTEX
  8
0
 10
16.7089
 20
10.6734
 30
0.0
  0
SEQEND
  8
0
  0
CIRCLE
  8
0
 10
16.8822
 20
10.5361
 30
0.0
 40
0.0722
  0
POLYLINE
  8
0
 66
     1
 10
0.0
 20
0.0
 30
0.0
 40
0.0065
 41
0.0065
  0
VERTEX
  8
0
 10
16.8524
 20
10.6018
 30
0.0
  0
VERTEX
  8
0
 10
16.9353
 20
10.4872
 30
0.0
  0
SEQEND
  8
0
  0
POLYLINE
  8
0
 66
     1
 10
0.0
 20
0.0
 30
0.0
 40
0.0065
 41
0.0065
  0
VERTEX
  8
0
 10
16.8291
 20
10.5849
 30
0.0
  0
VERTEX
  8
0
 10
16.9121
 20
10.4703
 30
0.0
  0
SEQEND
  8
0
  0
POLYLINE
  8
0
 66
     1
 10
0.0
 20
0.0
 30
0.0
 40
0.0065
 41
0.0065
  0
VERTEX
  8
0
 10
16.626
 20
10.5849
 30
0.0
  0
VERTEX
  8
0
 10
16.7089
 20
10.4703
 30
0.0
  0
SEQEND
  8
0
  0
CIRCLE
  8
0
 10
16.6791
 20
10.5361
 30
0.0
 40
0.0722
  0
POLYLINE
  8
0
 66
     1
 10
0.0
 20
0.0
 30
0.0
 40
0.0065
 41
0.0065
  0
VERTEX
  8
0
 10
16.6493
 20
10.6018
 30
0.0
  0
VERTEX
  8
0
 10
16.7322
 20
10.4872
 30
0.0
  0
SEQEND
  8
0
  0
CIRCLE
  8
0
 10
16.8822
 20
11.5517
 30
0.0
 40
0.0722
  0
CIRCLE
  8
0
 10
16.8822
 20
11.3486
 30
0.0
 40
0.0722
  0
CIRCLE
  8
0
 10
16.8822
 20
11.1454
 30
0.0
 40
0.0722
  0
CIRCLE
  8
0
 10
16.8822
 20
10.9423
 30
0.0
 40
0.0722
  0
LINE
  8
0
 10
16.4164
 20
11.5478
 30
0.0
 11
16.2749
 21
11.6167
 31
0.0
  0
LINE
  8
0
 10
16.2749
 20
11.6167
 30
0.0
 11
16.2749
 21
11.2581
 31
0.0
  0
POLYLINE
  8
0
 66
     1
 10
0.0
 20
0.0
 30
0.0
 40
0.008
 41
0.008
  0
VERTEX
  8
0
 10
16.5545
 20
11.4374
 30
0.0
  0
VERTEX
  8
0
 10
16.5545
 20
11.5478
 30
0.0
  0
VERTEX
  8
0
 10
16.5165
 20
11.5478
 30
0.0
  0
VERTEX
  8
0
 10
16.5165
 20
11.5685
 30
0.0
  0
VERTEX
  8
0
 10
16.4164
 20
11.5685
 30
0.0
  0
VERTEX
  8
0
 10
16.4164
 20
11.5478
 30
0.0
  0
VERTEX
  8
0
 10
16.2749
 20
11.6167
 30
0.0
  0
VERTEX
  8
0
 10
16.2749
 20
11.2581
 30
0.0
  0
VERTEX
  8
0
 10
16.4164
 20
11.3271
 30
0.0
  0
VERTEX
  8
0
 10
16.4164
 20
11.3064
 30
0.0
  0
VERTEX
  8
0
 10
16.5165
 20
11.3064
 30
0.0
  0
VERTEX
  8
0
 10
16.5165
 20
11.3271
 30
0.0
  0
VERTEX
  8
0
 10
16.5545
 20
11.3271
 30
0.0
  0
VERTEX
  8
0
 10
16.5545
 20
11.4374
 30
0.0
  0
SEQEND
  8
0
  0
POLYLINE
  8
0
 66
     1
 10
0.0
 20
0.0
 30
0.0
 40
0.0065
 41
0.0065
  0
VERTEX
  8
0
 10
16.8524
 20
11.2112
 30
0.0
  0
VERTEX
  8
0
 10
16.9353
 20
11.0965
 30
0.0
  0
SEQEND
  8
0
  0
POLYLINE
  8
0
 66
     1
 10
0.0
 20
0.0
 30
0.0
 40
0.0065
 41
0.0065
  0
VERTEX
  8
0
 10
16.6493
 20
11.2112
 30
0.0
  0
VERTEX
  8
0
 10
16.7322
 20
11.0965
 30
0.0
  0
SEQEND
  8
0
  0
CIRCLE
  8
0
 10
16.6791
 20
11.1454
 30
0.0
 40
0.0722
  0
POLYLINE
  8
0
 66
     1
 10
0.0
 20
0.0
 30
0.0
 40
0.05
  0
VERTEX
  8
0
 10
16.52
 20
11.2498
 30
0.0
  0
VERTEX
  8
0
 10
16.564
 20
11.2827
 30
0.0
 40
0.0
  0
SEQEND
  8
0
  0
LINE
  8
0
 10
16.5545
 20
11.5478
 30
0.0
 11
16.5165
 21
11.5478
 31
0.0
  0
LINE
  8
0
 10
16.5545
 20
11.3271
 30
0.0
 11
16.5165
 21
11.3271
 31
0.0
  0
POLYLINE
  8
0
 66
     1
 10
0.0
 20
0.0
 30
0.0
 40
0.04
 41
0.02
  0
VERTEX
  8
0
 10
16.4004
 20
11.177
 30
0.0
  0
VERTEX
  8
0
 10
16.52
 20
11.2498
 30
0.0
 40
0.02
  0
SEQEND
  8
0
  0
POLYLINE
  8
0
 66
     1
 10
0.0
 20
0.0
 30
0.0
 40
0.05
 41
0.02
  0
VERTEX
  8
0
 10
16.2827
 20
11.1695
 30
0.0
  0
VERTEX
  8
0
 10
16.4003
 20
11.2261
 30
0.0
 40
0.02
  0
SEQEND
  8
0
  0
POLYLINE
  8
0
 66
     1
 10
0.0
 20
0.0
 30
0.0
 40
0.02
 41
0.02
  0
VERTEX
  8
0
 10
16.2827
 20
11.1695
 30
0.0
  0
VERTEX
  8
0
 10
16.4003
 20
11.2261
 30
0.0
  0
VERTEX
  8
0
 10
16.3974
 20
11.1618
 30
0.0
  0
VERTEX
  8
0
 10
16.52
 20
11.2498
 30
0.0
  0
SEQEND
  8
0
  0
LINE
  8
0
 10
16.5165
 20
11.5478
 30
0.0
 11
16.5165
 21
11.5685
 31
0.0
  0
LINE
  8
0
 10
16.5165
 20
11.5685
 30
0.0
 11
16.4164
 21
11.5685
 31
0.0
  0
LINE
  8
0
 10
16.4164
 20
11.5685
 30
0.0
 11
16.4164
 21
11.5478
 31
0.0
  0
LINE
  8
0
 10
16.4164
 20
11.3064
 30
0.0
 11
16.4164
 21
11.3271
 31
0.0
  0
LINE
  8
0
 10
16.5165
 20
11.3064
 30
0.0
 11
16.4164
 21
11.3064
 31
0.0
  0
LINE
  8
0
 10
16.5165
 20
11.3271
 30
0.0
 11
16.5165
 21
11.3064
 31
0.0
  0
TEXT
  8
0
 10
16.5096
 20
11.3301
 30
0.0
 40
0.06
  1
+
  7
ROMAND
 71
     2
  0
TEXT
  8
0
 10
16.5079
 20
11.4982
 30
0.0
 40
0.06
  1
-
  7
ROMAND
 71
     2
  0
LINE
  8
0
 10
16.4164
 20
11.3271
 30
0.0
 11
16.2749
 21
11.2581
 31
0.0
  0
POLYLINE
  8
0
 66
     1
 10
0.0
 20
0.0
 30
0.0
 40
0.008
 41
0.008
  0
VERTEX
  8
0
 10
16.6129
 20
11.5187
 30
0.0
  0
VERTEX
  8
0
 10
16.5545
 20
11.5187
 30
0.0
  0
SEQEND
  8
0
  0
POLYLINE
  8
0
 66
     1
 10
0.0
 20
0.0
 30
0.0
 40
0.008
 41
0.008
  0
VERTEX
  8
0
 10
16.6129
 20
11.3562
 30
0.0
  0
VERTEX
  8
0
 10
16.5545
 20
11.3562
 30
0.0
  0
SEQEND
  8
0
  0
LINE
  8
0
 10
16.5545
 20
11.5478
 30
0.0
 11
16.5545
 21
11.3271
 31
0.0
  0
POLYLINE
  8
0
 66
     1
 10
0.0
 20
0.0
 30
0.0
 40
0.0065
 41
0.0065
  0
VERTEX
  8
0
 10
16.8291
 20
11.1943
 30
0.0
  0
VERTEX
  8
0
 10
16.9121
 20
11.0797
 30
0.0
  0
SEQEND
  8
0
  0
POLYLINE
  8
0
 66
     1
 10
0.0
 20
0.0
 30
0.0
 40
0.0065
 41
0.0065
  0
VERTEX
  8
0
 10
16.626
 20
11.1943
 30
0.0
  0
VERTEX
  8
0
 10
16.7089
 20
11.0797
 30
0.0
  0
SEQEND
  8
0
  0
POLYLINE
  8
0
 66
     1
 10
0.0
 20
0.0
 30
0.0
 40
0.0065
 41
0.0065
  0
VERTEX
  8
0
 10
16.8524
 20
10.8049
 30
0.0
  0
VERTEX
  8
0
 10
16.9353
 20
10.6903
 30
0.0
  0
SEQEND
  8
0
  0
POLYLINE
  8
0
 66
     1
 10
0.0
 20
0.0
 30
0.0
 40
0.0065
 41
0.0065
  0
VERTEX
  8
0
 10
16.6493
 20
10.8049
 30
0.0
  0
VERTEX
  8
0
 10
16.7322
 20
10.6903
 30
0.0
  0
SEQEND
  8
0
  0
POLYLINE
  8
0
 66
     1
 10
0.0
 20
0.0
 30
0.0
 40
0.0065
 41
0.0065
  0
VERTEX
  8
0
 10
16.8524
 20
11.008
 30
0.0
  0
VERTEX
  8
0
 10
16.9353
 20
10.8934
 30
0.0
  0
SEQEND
  8
0
  0
POLYLINE
  8
0
 66
     1
 10
0.0
 20
0.0
 30
0.0
 40
0.0065
 41
0.0065
  0
VERTEX
  8
0
 10
16.8291
 20
10.9912
 30
0.0
  0
VERTEX
  8
0
 10
16.9121
 20
10.8766
 30
0.0
  0
SEQEND
  8
0
  0
CIRCLE
  8
0
 10
16.6791
 20
10.9423
 30
0.0
 40
0.0722
  0
POLYLINE
  8
0
 66
     1
 10
0.0
 20
0.0
 30
0.0
 40
0.0065
 41
0.0065
  0
VERTEX
  8
0
 10
16.626
 20
10.9912
 30
0.0
  0
VERTEX
  8
0
 10
16.7089
 20
10.8766
 30
0.0
  0
SEQEND
  8
0
  0
POLYLINE
  8
0
 66
     1
 10
0.0
 20
0.0
 30
0.0
 40
0.0065
 41
0.0065
  0
VERTEX
  8
0
 10
16.6493
 20
11.008
 30
0.0
  0
VERTEX
  8
0
 10
16.7322
 20
10.8934
 30
0.0
  0
SEQEND
  8
0
  0
POLYLINE
  8
0
 66
     1
 10
0.0
 20
0.0
 30
0.0
 40
0.0065
 41
0.0065
  0
VERTEX
  8
0
 10
16.8524
 20
11.6174
 30
0.0
  0
VERTEX
  8
0
 10
16.9353
 20
11.5028
 30
0.0
  0
SEQEND
  8
0
  0
POLYLINE
  8
0
 66
     1
 10
0.0
 20
0.0
 30
0.0
 40
0.0065
 41
0.0065
  0
VERTEX
  8
0
 10
16.8291
 20
11.6006
 30
0.0
  0
VERTEX
  8
0
 10
16.9121
 20
11.4859
 30
0.0
  0
SEQEND
  8
0
  0
CIRCLE
  8
0
 10
16.6791
 20
11.5517
 30
0.0
 40
0.0722
  0
POLYLINE
  8
0
 66
     1
 10
0.0
 20
0.0
 30
0.0
 40
0.0065
 41
0.0065
  0
VERTEX
  8
0
 10
16.626
 20
11.6006
 30
0.0
  0
VERTEX
  8
0
 10
16.7089
 20
11.4859
 30
0.0
  0
SEQEND
  8
0
  0
POLYLINE
  8
0
 66
     1
 10
0.0
 20
0.0
 30
0.0
 40
0.0065
 41
0.0065
  0
VERTEX
  8
0
 10
16.6493
 20
11.6174
 30
0.0
  0
VERTEX
  8
0
 10
16.7322
 20
11.5028
 30
0.0
  0
SEQEND
  8
0
  0
POLYLINE
  8
0
 66
     1
 10
0.0
 20
0.0
 30
0.0
 40
0.0065
 41
0.0065
  0
VERTEX
  8
0
 10
16.8524
 20
11.4143
 30
0.0
  0
VERTEX
  8
0
 10
16.9353
 20
11.2997
 30
0.0
  0
SEQEND
  8
0
  0
POLYLINE
  8
0
 66
     1
 10
0.0
 20
0.0
 30
0.0
 40
0.0065
 41
0.0065
  0
VERTEX
  8
0
 10
16.8291
 20
11.3974
 30
0.0
  0
VERTEX
  8
0
 10
16.9121
 20
11.2828
 30
0.0
  0
SEQEND
  8
0
  0
CIRCLE
  8
0
 10
16.6791
 20
11.3486
 30
0.0
 40
0.0722
  0
POLYLINE
  8
0
 66
     1
 10
0.0
 20
0.0
 30
0.0
 40
0.0065
 41
0.0065
  0
VERTEX
  8
0
 10
16.626
 20
11.3974
 30
0.0
  0
VERTEX
  8
0
 10
16.7089
 20
11.2828
 30
0.0
  0
SEQEND
  8
0
  0
POLYLINE
  8
0
 66
     1
 10
0.0
 20
0.0
 30
0.0
 40
0.0065
 41
0.0065
  0
VERTEX
  8
0
 10
16.6493
 20
11.4143
 30
0.0
  0
VERTEX
  8
0
 10
16.7322
 20
11.2997
 30
0.0
  0
SEQEND
  8
0
  0
POLYLINE
  8
0
 66
     1
 10
0.0
 20
0.0
 30
0.0
 40
0.008
 41
0.008
  0
VERTEX
  8
0
 10
17.0031
 20
11.4435
 30
0.0
  0
VERTEX
  8
0
 10
17.0031
 20
11.5539
 30
0.0
  0
VERTEX
  8
0
 10
17.0411
 20
11.5539
 30
0.0
  0
VERTEX
  8
0
 10
17.0411
 20
11.5746
 30
0.0
  0
VERTEX
  8
0
 10
17.1412
 20
11.5746
 30
0.0
  0
VERTEX
  8
0
 10
17.1412
 20
11.5539
 30
0.0
  0
VERTEX
  8
0
 10
17.2827
 20
11.6229
 30
0.0
  0
VERTEX
  8
0
 10
17.2827
 20
11.2642
 30
0.0
  0
VERTEX
  8
0
 10
17.1412
 20
11.3332
 30
0.0
  0
VERTEX
  8
0
 10
17.1412
 20
11.3125
 30
0.0
  0
VERTEX
  8
0
 10
17.0411
 20
11.3125
 30
0.0
  0
VERTEX
  8
0
 10
17.0411
 20
11.3332
 30
0.0
  0
VERTEX
  8
0
 10
17.0031
 20
11.3332
 30
0.0
  0
VERTEX
  8
0
 10
17.0031
 20
11.4435
 30
0.0
  0
SEQEND
  8
0
  0
POLYLINE
  8
0
 66
     1
 10
0.0
 20
0.0
 30
0.0
 40
0.02
 41
0.02
  0
VERTEX
  8
0
 10
17.2749
 20
11.1756
 30
0.0
  0
VERTEX
  8
0
 10
17.1573
 20
11.2323
 30
0.0
  0
VERTEX
  8
0
 10
17.1602
 20
11.1679
 30
0.0
  0
VERTEX
  8
0
 10
17.0376
 20
11.256
 30
0.0
  0
SEQEND
  8
0
  0
POLYLINE
  8
0
 66
     1
 10
0.0
 20
0.0
 30
0.0
 40
0.05
 41
0.02
  0
VERTEX
  8
0
 10
17.2749
 20
11.1756
 30
0.0
  0
VERTEX
  8
0
 10
17.1573
 20
11.2323
 30
0.0
 40
0.02
  0
SEQEND
  8
0
  0
POLYLINE
  8
0
 66
     1
 10
0.0
 20
0.0
 30
0.0
 40
0.04
 41
0.02
  0
VERTEX
  8
0
 10
17.1571
 20
11.1832
 30
0.0
  0
VERTEX
  8
0
 10
17.0376
 20
11.256
 30
0.0
 40
0.02
  0
SEQEND
  8
0
  0
POLYLINE
  8
0
 66
     1
 10
0.0
 20
0.0
 30
0.0
 40
0.05
  0
VERTEX
  8
0
 10
17.0376
 20
11.256
 30
0.0
  0
VERTEX
  8
0
 10
16.9936
 20
11.2888
 30
0.0
 40
0.0
  0
SEQEND
  8
0
  0
POLYLINE
  8
0
 66
     1
 10
0.0
 20
0.0
 30
0.0
 40
0.008
 41
0.008
  0
VERTEX
  8
0
 10
16.9447
 20
11.3623
 30
0.0
  0
VERTEX
  8
0
 10
17.0031
 20
11.3623
 30
0.0
  0
SEQEND
  8
0
  0
POLYLINE
  8
0
 66
     1
 10
0.0
 20
0.0
 30
0.0
 40
0.008
 41
0.008
  0
VERTEX
  8
0
 10
16.9447
 20
11.5248
 30
0.0
  0
VERTEX
  8
0
 10
17.0031
 20
11.5248
 30
0.0
  0
SEQEND
  8
0
  0
TEXT
  8
0
 10
17.0532
 20
11.5044
 30
0.0
 40
0.06
  1
-
  7
ROMAND
  0
TEXT
  8
0
 10
17.048
 20
11.3362
 30
0.0
 40
0.06
  1
+
  7
ROMAND
  0
POLYLINE
  8
0
 66
     1
 10
0.0
 20
0.0
 30
0.0
 40
0.05
 41
0.02
  0
VERTEX
  8
0
 10
17.2749
 20
10.9076
 30
0.0
  0
VERTEX
  8
0
 10
17.1573
 20
10.8509
 30
0.0
 40
0.02
  0
SEQEND
  8
0
  0
POLYLINE
  8
0
 66
     1
 10
0.0
 20
0.0
 30
0.0
 40
0.04
 41
0.02
  0
VERTEX
  8
0
 10
17.1571
 20
10.9
 30
0.0
  0
VERTEX
  8
0
 10
17.0376
 20
10.8272
 30
0.0
 40
0.02
  0
SEQEND
  8
0
  0
POLYLINE
  8
0
 66
     1
 10
0.0
 20
0.0
 30
0.0
 40
0.02
 41
0.02
  0
VERTEX
  8
0
 10
17.2749
 20
10.9076
 30
0.0
  0
VERTEX
  8
0
 10
17.1573
 20
10.8509
 30
0.0
  0
VERTEX
  8
0
 10
17.1602
 20
10.9152
 30
0.0
  0
VERTEX
  8
0
 10
17.0376
 20
10.8272
 30
0.0
  0
SEQEND
  8
0
  0
TEXT
  8
0
 10
17.048
 20
10.6914
 30
0.0
 40
0.06
  1
+
  7
ROMAND
  0
TEXT
  8
0
 10
17.0514
 20
10.5397
 30
0.0
 40
0.06
  1
-
  7
ROMAND
  0
POLYLINE
  8
0
 66
     1
 10
0.0
 20
0.0
 30
0.0
 40
0.008
 41
0.008
  0
VERTEX
  8
0
 10
17.0031
 20
10.6396
 30
0.0
  0
VERTEX
  8
0
 10
17.0031
 20
10.75
 30
0.0
  0
VERTEX
  8
0
 10
17.0411
 20
10.75
 30
0.0
  0
VERTEX
  8
0
 10
17.0411
 20
10.7707
 30
0.0
  0
VERTEX
  8
0
 10
17.1412
 20
10.7707
 30
0.0
  0
VERTEX
  8
0
 10
17.1412
 20
10.75
 30
0.0
  0
VERTEX
  8
0
 10
17.2827
 20
10.819
 30
0.0
  0
VERTEX
  8
0
 10
17.2827
 20
10.4603
 30
0.0
  0
VERTEX
  8
0
 10
17.1412
 20
10.5293
 30
0.0
  0
VERTEX
  8
0
 10
17.1412
 20
10.5086
 30
0.0
  0
VERTEX
  8
0
 10
17.0411
 20
10.5086
 30
0.0
  0
VERTEX
  8
0
 10
17.0411
 20
10.5293
 30
0.0
  0
VERTEX
  8
0
 10
17.0031
 20
10.5293
 30
0.0
  0
VERTEX
  8
0
 10
17.0031
 20
10.6396
 30
0.0
  0
SEQEND
  8
0
  0
POLYLINE
  8
0
 66
     1
 10
0.0
 20
0.0
 30
0.0
 40
0.05
  0
VERTEX
  8
0
 10
17.0376
 20
10.8272
 30
0.0
  0
VERTEX
  8
0
 10
16.9936
 20
10.7944
 30
0.0
 40
0.0
  0
SEQEND
  8
0
  0
POLYLINE
  8
0
 66
     1
 10
0.0
 20
0.0
 30
0.0
 40
0.008
 41
0.008
  0
VERTEX
  8
0
 10
16.9447
 20
10.5584
 30
0.0
  0
VERTEX
  8
0
 10
17.0031
 20
10.5584
 30
0.0
  0
SEQEND
  8
0
  0
POLYLINE
  8
0
 66
     1
 10
0.0
 20
0.0
 30
0.0
 40
0.008
 41
0.008
  0
VERTEX
  8
0
 10
16.9447
 20
10.7209
 30
0.0
  0
VERTEX
  8
0
 10
17.0031
 20
10.7209
 30
0.0
  0
SEQEND
  8
0
  0
POLYLINE
  8
0
 66
     1
 10
0.0
 20
0.0
 30
0.0
 40
0.05
 41
0.02
  0
VERTEX
  8
0
 10
16.2827
 20
10.9014
 30
0.0
  0
VERTEX
  8
0
 10
16.4003
 20
10.8448
 30
0.0
 40
0.02
  0
SEQEND
  8
0
  0
POLYLINE
  8
0
 66
     1
 10
0.0
 20
0.0
 30
0.0
 40
0.02
 41
0.02
  0
VERTEX
  8
0
 10
16.2827
 20
10.9014
 30
0.0
  0
VERTEX
  8
0
 10
16.4003
 20
10.8448
 30
0.0
  0
VERTEX
  8
0
 10
16.3974
 20
10.9091
 30
0.0
  0
VERTEX
  8
0
 10
16.52
 20
10.8211
 30
0.0
  0
SEQEND
  8
0
  0
POLYLINE
  8
0
 66
     1
 10
0.0
 20
0.0
 30
0.0
 40
0.04
 41
0.02
  0
VERTEX
  8
0
 10
16.4004
 20
10.8939
 30
0.0
  0
VERTEX
  8
0
 10
16.52
 20
10.8211
 30
0.0
 40
0.02
  0
SEQEND
  8
0
  0
TEXT
  8
0
 10
16.5062
 20
10.5335
 30
0.0
 40
0.06
  1
-
  7
ROMAND
 71
     2
  0
TEXT
  8
0
 10
16.5096
 20
10.6852
 30
0.0
 40
0.06
  1
+
  7
ROMAND
 71
     2
  0
LINE
  8
0
 10
16.5165
 20
10.5025
 30
0.0
 11
16.4164
 21
10.5025
 31
0.0
  0
LINE
  8
0
 10
16.5165
 20
10.7645
 30
0.0
 11
16.4164
 21
10.7645
 31
0.0
  0
POLYLINE
  8
0
 66
     1
 10
0.0
 20
0.0
 30
0.0
 40
0.008
 41
0.008
  0
VERTEX
  8
0
 10
16.5545
 20
10.6335
 30
0.0
  0
VERTEX
  8
0
 10
16.5545
 20
10.7439
 30
0.0
  0
VERTEX
  8
0
 10
16.5165
 20
10.7439
 30
0.0
  0
VERTEX
  8
0
 10
16.5165
 20
10.7645
 30
0.0
  0
VERTEX
  8
0
 10
16.4164
 20
10.7645
 30
0.0
  0
VERTEX
  8
0
 10
16.4164
 20
10.7439
 30
0.0
  0
VERTEX
  8
0
 10
16.2749
 20
10.8128
 30
0.0
  0
VERTEX
  8
0
 10
16.2749
 20
10.4542
 30
0.0
  0
VERTEX
  8
0
 10
16.4164
 20
10.5232
 30
0.0
  0
VERTEX
  8
0
 10
16.4164
 20
10.5025
 30
0.0
  0
VERTEX
  8
0
 10
16.5165
 20
10.5025
 30
0.0
  0
VERTEX
  8
0
 10
16.5165
 20
10.5232
 30
0.0
  0
VERTEX
  8
0
 10
16.5545
 20
10.5232
 30
0.0
  0
VERTEX
  8
0
 10
16.5545
 20
10.6335
 30
0.0
  0
SEQEND
  8
0
  0
LINE
  8
0
 10
16.4164
 20
10.5025
 30
0.0
 11
16.4164
 21
10.5232
 31
0.0
  0
LINE
  8
0
 10
16.4164
 20
10.7645
 30
0.0
 11
16.4164
 21
10.7439
 31
0.0
  0
LINE
  8
0
 10
16.2749
 20
10.8128
 30
0.0
 11
16.2749
 21
10.4542
 31
0.0
  0
LINE
  8
0
 10
16.4164
 20
10.5232
 30
0.0
 11
16.2749
 21
10.4542
 31
0.0
  0
LINE
  8
0
 10
16.4164
 20
10.7439
 30
0.0
 11
16.2749
 21
10.8128
 31
0.0
  0
POLYLINE
  8
0
 66
     1
 10
0.0
 20
0.0
 30
0.0
 40
0.008
 41
0.008
  0
VERTEX
  8
0
 10
16.6129
 20
10.7148
 30
0.0
  0
VERTEX
  8
0
 10
16.5545
 20
10.7148
 30
0.0
  0
SEQEND
  8
0
  0
POLYLINE
  8
0
 66
     1
 10
0.0
 20
0.0
 30
0.0
 40
0.008
 41
0.008
  0
VERTEX
  8
0
 10
16.6129
 20
10.5523
 30
0.0
  0
VERTEX
  8
0
 10
16.5545
 20
10.5523
 30
0.0
  0
SEQEND
  8
0
  0
LINE
  8
0
 10
16.5545
 20
10.7439
 30
0.0
 11
16.5545
 21
10.5232
 31
0.0
  0
LINE
  8
0
 10
16.5165
 20
10.5232
 30
0.0
 11
16.5165
 21
10.5025
 31
0.0
  0
LINE
  8
0
 10
16.5165
 20
10.7439
 30
0.0
 11
16.5165
 21
10.7645
 31
0.0
  0
LINE
  8
0
 10
16.5545
 20
10.5232
 30
0.0
 11
16.5165
 21
10.5232
 31
0.0
  0
LINE
  8
0
 10
16.5545
 20
10.7439
 30
0.0
 11
16.5165
 21
10.7439
 31
0.0
  0
POLYLINE
  8
0
 66
     1
 10
0.0
 20
0.0
 30
0.0
 40
0.05
  0
VERTEX
  8
0
 10
16.52
 20
10.8211
 30
0.0
  0
VERTEX
  8
0
 10
16.564
 20
10.7882
 30
0.0
 40
0.0
  0
SEQEND
  8
0
  0
TEXT
  8
0
 10
16.3267
 20
11.405
 30
0.0
 40
0.1
  1
1
  7
ROMAND
  0
TEXT
  8
0
 10
17.1254
 20
11.4173
 30
0.0
 40
0.1
  1
3
  7
ROMAND
  0
TEXT
  8
0
 10
16.2959
 20
10.5765
 30
0.0
 40
0.1
  1
2
  7
ROMAND
  0
TEXT
  8
0
 10
17.1254
 20
10.6011
 30
0.0
 40
0.1
  1
4
  7
ROMAND
  0
LINE
  8
0
 10
16.5909
 20
11.6627
 30
0.0
 11
16.5909
 21
10.4293
 31
0.0
  0
LINE
  8
0
 10
16.9718
 20
11.6627
 30
0.0
 11
16.9718
 21
10.4293
 31
0.0
  0
LINE
  8
0
 10
16.5909
 20
11.6627
 30
0.0
 11
16.9718
 21
11.6627
 31
0.0
  0
LINE
  8
0
 10
16.5909
 20
10.4293
 30
0.0
 11
16.9718
 21
10.4293
 31
0.0
  0
LINE
  8
0
 10
16.7813
 20
11.6627
 30
0.0
 11
16.7813
 21
10.4293
 31
0.0
  0
LINE
  8
0
 10
16.5909
 20
11.4541
 30
0.0
 11
16.9718
 21
11.4541
 31
0.0
  0
LINE
  8
0
 10
16.5909
 20
11.2454
 30
0.0
 11
16.9718
 21
11.2454
 31
0.0
  0
LINE
  8
0
 10
16.5909
 20
11.0491
 30
0.0
 11
16.9718
 21
11.0491
 31
0.0
  0
LINE
  8
0
 10
16.5909
 20
10.8404
 30
0.0
 11
16.9718
 21
10.8404
 31
0.0
  0
LINE
  8
0
 10
16.5909
 20
10.6379
 30
0.0
 11
16.9718
 21
10.6379
 31
0.0
  0
TEXT
  8
0
 10
16.4557
 20
11.7241
 30
0.0
 40
0.1
  1
OUTPUTS
  7
ROMAND
  0
TEXT
  8
0
 10
17.9093
 20
11.7442
 30
0.0
 40
0.08
  1
MODE SWITCH SETTINGS
  7
ROMAND
  0
TEXT
  8
0
 10
19.8185
 20
11.7442
 30
0.0
 40
0.08
  1
BRIDGE MONO
  7
ROMAND
  0
POLYLINE
  8
0
 66
     1
 10
0.0
 20
0.0
 30
0.0
 40
0.01
 41
0.01
  0
VERTEX
  8
0
 10
18.4644
 20
10.072
 30
0.0
  0
VERTEX
  8
0
 10
16.7771
 20
10.072
 30
0.0
  0
VERTEX
  8
0
 10
16.7771
 20
10.2908
 30
0.0
  0
VERTEX
  8
0
 10
16.14
 20
10.2908
 30
0.0
  0
VERTEX
  8
0
 10
16.14
 20
11.8815
 30
0.0
  0
VERTEX
  8
0
 10
22.0529
 20
11.8815
 30
0.0
  0
VERTEX
  8
0
 10
22.0529
 20
10.6189
 30
0.0
  0
VERTEX
  8
0
 10
21.0177
 20
10.6189
 30
0.0
  0
VERTEX
  8
0
 10
21.0177
 20
10.0621
 30
0.0
  0
VERTEX
  8
0
 10
18.4594
 20
10.0621
 30
0.0
  0
SEQEND
  8
0
  0
POLYLINE
  8
0
 66
     1
 10
0.0
 20
0.0
 30
0.0
 40
0.01
 41
0.01
  0
VERTEX
  8
0
 10
19.8431
 20
10.6884
 30
0.0
  0
VERTEX
  8
0
 10
20.9082
 20
10.6884
 30
0.0
  0
SEQEND
  8
0
  0
POLYLINE
  8
0
 66
     1
 10
0.0
 20
0.0
 30
0.0
 40
0.01
 41
0.01
  0
VERTEX
  8
0
 10
17.454
 20
11.8815
 30
0.0
  0
VERTEX
  8
0
 10
17.454
 20
10.072
 30
0.0
  0
SEQEND
  8
0
  0
POLYLINE
  8
0
 66
     1
 10
0.0
 20
0.0
 30
0.0
 40
0.01
 41
0.01
  0
VERTEX
  8
0
 10
19.7535
 20
11.8815
 30
0.0
  0
VERTEX
  8
0
 10
19.7535
 20
10.0621
 30
0.0
  0
SEQEND
  8
0
  0
POLYLINE
  8
0
 66
     1
 10
0.0
 20
0.0
 30
0.0
 40
0.01
 41
0.01
  0
VERTEX
  8
0
 10
18.6187
 20
11.6926
 30
0.0
  0
VERTEX
  8
0
 10
18.6187
 20
10.0621
 30
0.0
  0
SEQEND
  8
0
  0
POLYLINE
  8
0
 66
     1
 10
0.0
 20
0.0
 30
0.0
 40
0.01
 41
0.01
  0
VERTEX
  8
0
 10
17.454
 20
11.6926
 30
0.0
  0
VERTEX
  8
0
 10
20.7389
 20
11.6926
 30
0.0
  0
VERTEX
  8
0
 10
20.7389
 20
11.8815
 30
0.0
  0
SEQEND
  8
0
  0
POLYLINE
  8
0
 66
     1
 10
0.0
 20
0.0
 30
0.0
 40
0.01
 41
0.01
  0
VERTEX
  8
0
 10
18.6187
 20
10.5791
 30
0.0
  0
VERTEX
  8
0
 10
19.7535
 20
10.5791
 30
0.0
  0
SEQEND
  8
0
  0
POLYLINE
  8
0
 66
     1
 10
0.0
 20
0.0
 30
0.0
 40
0.01
 41
0.01
  0
VERTEX
  8
0
 10
18.6187
 20
11.1259
 30
0.0
  0
VERTEX
  8
0
 10
19.7535
 20
11.1259
 30
0.0
  0
SEQEND
  8
0
  0
TEXT
  8
0
 10
17.9081
 20
9.4301
 30
0.0
 40
0.08
  1
CX404
  7
ROMAND
  0
TEXT
  8
0
 10
17.4681
 20
9.316
 30
0.0
 40
0.055
  1
OUTPUT PWR PER CH/AMP: 250 W/8 OHM
  7
ROMAND
  0
TEXT
  8
0
 10
17.4795
 20
9.179
 30
0.0
 40
0.055
  1
120V
  7
ROMAND
  0
TEXT
  8
0
 10
17.9367
 20
9.1847
 30
0.0
 40
0.055
  1
9 A 50/60 Hz
  7
ROMAND
  0
ENDSEC
  0
EOF
